Creed - Away In Silence Chords & Tabs

 

Creed Chords & Tabs

Version: 1 Type: Tab 0 ratings
1 star 2 stars 3 stars 4 stars 5 stars
comments

Away In Silence Tab

   
Well this is not 100% accurate but quite enjoyable I guess
This is my first tab btw, so comments and feedbacks are welcome


TUNING

Well some say it's in open-e or open-g but i usually play it in open a.
Actually it doesnt really matter for me since open-e, open-g, and open-a have the same 
interval per string

This is how i tune open a

1------|------|------|------|----0-|
2------|------|------|----0-|-3----|
3------|------|----0-|-4----|------|
4------|----0-|-5----|------|------|
5----0-|-7----|------|------|------|
6-5----|------|------|------|------|


INTRO / VERSE

This part is pretty much similar with the one tabbed by 2Luke -Raiwaqa kido (thank you 
sharing 2Luke)
although i made a minor changes


E |---------------------------------------------|----------------------------------------0----|
C#|--12----------10--12--12s--13----12----10----|---12-----------10--12--12h--13--------------|
A |--------0------------------------------------|---------0---------------------------0-------|
E |---------------------------------------------|---------------------------------------------|
A |---0-------0---------------------------------|---11-------11-------------------11----------|
E |-------------------------------0-------------|---------------------------------------------|


C |---------------------------------------0----|--------------0-------------0-------|
C#|---10-----------8--10--10h--12--------------|---5-------------5------------------|
A |---------0--------------------------0-------|--------0----------------------0----|
E |--------------------------------------------|------------------------------------|
A |---10-------10------------------10----------|---5-------5-------------5----------|
E |--------------------------------------------|------------------------------------|


E |--------------------------------------------|----------------------------------------|
C#|---12----------10--12--12s--13-----13-------|---15-----------15------------13--12----|
A |---------0------------------------------0---|--------------------0-------------------|
E |--------------------------------------------|---------0------------------------------|
A |----0-------0-------------------0-----------|---11-------11------------11------------|
E |--------------------------------------------|----------------------------------------|


E |---------------------------------------0----|--------------0--------------|
C#|---10-----------8--10--10h--12--------------|---5-------------5-----------|
A |---------0--------------------------0-------|--------0-----------0--------|
E |--------------------------------------------|-----------------------------|
A |---10-------10------------------10----------|---5-------5--------------5--|
E |--------------------------------------------|-----------------------------|


E |--------------0--------------|--------------0---------------------|-------|
C#|---5-------------5-----------|---4-------------4------------------|---4---|
A |--------0-----------0--------|--------0-----------0---------------|-------|
E |-----------------------------|------------------------------------|-------|
A |---5-------5--------------5--|---5-------5-------------5----------|---5---|
E |-----------------------------|------------------------------------|-------|


Err, well, since i'm not good at singing while picking, so i usually do these chords for 
first and second verse:


E |-----------------------------------------------------------|
C#|-----0----------------------------0------------------------|
A |-----0----------------------------0------------------------|
E |-----5----------------------------4------------------------|
A |-----0----------------------------0------------------------|
E |-----5----------------------------4------------------------|

   You walk away in silence.... You walk away to breath.....


E |-----------------------------------------------------------|
C#|-----0------------------------------5----------------------|
A |-----0------------------------------0----------------------|
E |-----3------------------------------0----------------------|
A |-----0------------------------------5----------------------|
E |-----3-----------------------------------------------------|


      Stop and turn around to say goodbye to me


it goes the same for:

I'm pleading as you're leaving
I'm begging you to stay
I'm not the man I use to be I've changed

then
[ Tab from: http://www.guitartabs.cc/tabs/c/creed/away_in_silence_tab.html ]
E |-----5------------------------------------------------------|
C#|-----5------------------------------4-------------4---------|
A |-----0------------------------------0-------------5---------|
E |-----0------------------------------0-------------0---------|
A |-----5------------------------------5-------------5---------|
E |------------------------------------------------------------|

           I'm not the man I use to be I've changed


CHORUS


E |--------------------------------------------------------|
C#|-----3-----------------3-----------------------0--------|
A |-----0-----------------0-----------------------0--------|
E |-----5-----------------4-----------------------0--------|
A |-----0-----------------2-----------------------4--------|
E |-----------------------------------------------2--------|

          Dont give up on us... Dont give up on love

E |------------------------------------------------------------|
C#|-----------------------0-----------------5---------3--------|
A |-----------------------0-----------------0---------0--------|
E |-----------------------0-----------------0---------5--------|
A |-----------------------4-----------------5------------------|
E |-----------------------2------------------------------------|

          Dont give up on us...     Dont give up on love


repeat the chords again for


If my life is the price, then my life it will cost
Now that I'm picking up the pieces see the pain that I have caused
It's hard to believe in someone you thought was lost
Don't give up on us
Don't give up on love

Ended by

E |--------------------------------------|
C#|--------------5-----------------------|
A |--------------0-----------------------|
E |--------------0-----------------------|
A |--------------5-----------------------|
E |--------------------------------------|

     Don't you walk away in silence


For the part after second chorus

E |-------------------------------------5--------------------|
C#|--------------5----------------------5--------------------|
A |--------------0----------------------0--------------------|
E |--------------0----------------------0--------------------|
A |--------------5----------------------5--------------------|
E |----------------------------------------------------------|

      Don't you walk away in silence, please come back to me


E |----------------------------------------------------------------|
C#|--------------4------------------------4------------------------|
A |--------------0------------------------5------------------------|
E |--------------0------------------------0------------------------|
A |--------------5------------------------5------------------------|
E |----------------------------------------------------------------|

     Don't you walk away in silence, I'm not the man i used to be

BRIDGE

E |------------------------------------------------------------------------------------|
C#|----0-------------0-------------------0--------------------0-0-------0-0---------0--|
A |----0-------------0-------------------0--------------------0-0-------0-0---------0--|
E |----3-------------2-------------------5--------------------5h7-------7p5---------3--|
A |----0-------------0-------------------0--------------------0h0-------0p0---------0--|
E |----3-------------2-------------------5--------------------5h7-------7p5---------3--|

  And I pray that tomorrow you'd be...(home)
                                        We   can  rebuild an forever,    We can go on


E |-----------------------------|
C#|--------0---------0----------|
A |--------0---------0----------|
E |--------2---------5----------|
A |--------0---------0----------|
E |--------2---------5----------|

Go on... Go on....


E |-----------------------------------------------------------------------------------------|
C#|----0-------------0-------------------0--------------------0-0------------0-0---------0--|
A |----0-------------0-------------------0--------------------0-0------------0-0---------0--|
E |----3-------------2-------------------5--------------------5h7------------7p5---------3--|
A |----0-------------0-------------------0--------------------0h0------------0p0---------0--|
E |----3-------------2-------------------5--------------------5h7------------7p5---------3--|

  And I pray that tomorrow you'd be...(home)
                                        Look  at horizon   and let the light bring you  home

E |----------------------------------------------------------|
C#|-------0------------------0------0-0---0-0---0-0 ---------|
A |-------0------------------0------0-0---0-0---0-0 ---------|
E |-------2------------------5------5h7---7h9---9h10---------|
A |-------0------------------0------0h0---0h0---0h0 ---------|
E |-------2------------------5------5h7---7h9---9h10---------|

         Home... Bring you home....


REPEAT CHORUS
END

| /  slide up
| \  slide down
| h  hammer-on
| p  pull-off
| ~  vibrato
| +  harmonic
| x  Mute note


Well that's it, hope you guys enjoy it
and thank you again for 2Luke -Raiwaqa kido
for sharing the tab

January 2010
anaktk05080@gmail.com
Comments