Creed - Arms Wide Open Solo Chords & Tabs

 

Arms Wide Open Solo Chords & Tabs

Creed Chords & Tabs

Version: 1 Type: Tab 0 ratings
1 star 2 stars 3 stars 4 stars 5 stars
comments

Arms Wide Open Solo Tab

E|----------------------------------------------------------------
B|----------------------------------------------------------------
G|-----------9--10--9--10--9----------9--10--9--10--9-------------
D|---10--12-------------------10--12------------------------------
A|----------------------------------------------------------------
E|----------------------------------------------------------------
[ Tab from: http://www.guitartabs.cc/tabs/c/creed/arms_wide_open_solo_tab.html ]
E|----------------------------------------------------------------
B|----------------------------------------------------------------
G|-----------9--(10)--10--9--10--9--10--9--10--9--10--(12L)--12---
D|---10--12-------------------------------------------------------
A|----------------------------------------------------------------
E|----------------------------------------------------------------

() Tone bend
(*L) Hold tone bend for longer


I think the Guitarist (Mark Tremonti) does more hammer ons and tid bits in the solo but its more fun to experiment urself
and find out a sound that u think is right.

This is my first tab so im not sure if its right, any comments, suggestions or want to tab some music with me email me at 
Sparechangefool@placebo.nu
Comments