Cream - White Room Chords & Tabs

 

White Room Chords & Tabs

Cream Chords & Tabs

Version: 5 Type: Tab 0 ratings
1 star 2 stars 3 stars 4 stars 5 stars
comments

White Room Tab

   
white room

intro

 Gm  F   Dm  C  Gm  F   Dm  C  A7
-10--8----------10--8------------|
-11--10--10--8--11--10--10--8----|
---------10--9----------10--9----|
-------------------------------5-|
-------------------------------0-|
---------------------------------|
 ah  ah  ah  ah ah  ah  ah  ah ah

verses

 D     Cadd9  G/B     Bb/F  C/G
------------------------------|
-----3-----3------3---3-----5-|
-----2-----0------0---3-----5-|
-0-0-------2------0---3-----5-|
-------3-3----2-2-----1-----3-|
----------------------1-----3-|

        D       Cadd9         G/B         Bb/F  C/G         D       Cadd9         G/B         Bb/F  C/G
(1)in a white room       with black curtains       near the station
(2)you said no strings   could secure you          at the station
(3)at the party          she was kindness          in the hard crowd

   blackroof country     no gold pavements         tired starlings
   platform ticket       restless diesels          goodbye windows
   consolation           from the old wound        now forgotten

   silver horses         run down moonbeams        in your dark eyes
   i walked into         such a sad time           at the station
   yellow tigers         crouched in jungles       in her dark eyes

   dawnlight smiles      on your leaving           my contentment
   as I walked out       felt my own need          just beginning
   shes just dressing    goodbye windows           tired starlings

chorus

 C     G/B   Bb    A     C     G/B   Bb    C      D
--------------------------------------------------------------------|
-1-----3-----3-----2-----1-----3-----2-----5------7-----------------|
-0-----0-----3-----2-----0-----0-----2-----5------7---------7-7---7-|
-2-----0-----3-----2-----2-----0-----2-----5------7-----7h9-----9---|
-3-----2-----1-----0-----3-----2-----1-----3------5-----------------|
--------------------------------------------------------------------|

       C            G/B             Bb        A
(1)ill wait in this place where the sun never shines
(2)ill wait in the queue when the trains come back
(3)ill sleep in this place with the lonely crowd

   C            G/B             Bb      C        D
   wait in this place where the shadows run from themselves
   ill wait for you   where the shadows run from themselves
   lie in the dark    where the shadows run from themselves


thanks to max daddy for solos

second verse riffs(with wah:

-------------------------------------|
-/13-13-13-10------------------------|
--------------12-10------------------|
--------------------12-10------------|
--------------------------12-10-8----|
----------------------------------10-|

------------------------------------------------------|
-------10-------10-------10--------13-----------------|
-12(14)---12(14)---12(14)----12(14)---12(14)-12-10----|
---------------------------------------------------12-|
------------------------------------------------------|
------------------------------------------------------|

-----------------------------------|
--------------------13-------------|
-----10-12-10-12/14----14\12-10----|
-/12----------------------------12-|
-----------------------------------|
-----------------------------------|

---------------------------------|
---------------------------------|
-10(11)--------------------------|
--------12p10h12-----------------|
---------------------------------|
---------------------------------|
Thirds verse:

---------------------------------|
-13-10---------------------------|
-------12(14)-10----10-10--------|
-----------------12-------12-----|
---------------------------------|
---------------------------------|

-----------------16p15-16p15----------------|
-----15-15--17---------------15~------15-15-|
-/16------------------------------/16-------|
--------------------------------------------|
--------------------------------------------|
--------------------------------------------|
[ Tab from: http://www.guitartabs.cc/tabs/c/cream/white_room_tab_ver_5.html ]
solo
--------10--------------10-------------10------------------------------------------|
-----------13--------------13-------------13---------------------------------------|
-12(14)-------12(14)~---------12(14)~--------12(14)12-10-12----10~--12-10-12-10-12-|
------------------------------------------------------------12---------------------|
-----------------------------------------------------------------------------------|
-----------------------------------------------------------------------------------|

------------------------10-----------10-------------------------------|
-----------------13(14)----13(15)~-------13---------------------------|
-10--12--10----------------------------------12(14)-12-10----10-12/14-|
-------------12-------------------------------------------12----------|
----------------------------------------------------------------------|
----------------------------------------------------------------------|
    10x                                                                     3x
-||------13-||------------------------------------------10--------------||-----------||
-||13h15----||-13------------------------------------------13-----------||-----------||
-||---------||----14\12-10-----------10----12-10-12(14)--------12(14)12-||-10h12p10--||
-||---------||-------------12-10-12-----12------------------------------||---------12||
-||---------||----------------------------------------------------------||-----------||
-||---------||----------------------------------------------------------||-----------||

----------------------------------------------------------------------------|
-----------------------------------------------------13---10-13-10-13-10-13-|
-10~------------------10----12p10-----------10----10------------------------|
------12p10-----10h12----12-------12p10--12----12---------------------------|
------------12--------------------------------------------------------------|
----------------------------------------------------------------------------|

-10--------------------------10------------------------------------------------|
----13-10-13-10-13-10-13--13----13-10----10------------------------------------|
--------------------------------------12----10-12-10~----------14(16)-12(14)~~-|
------------------------------------------------------12-10-12-----------------|
-------------------------------------------------------------------------------|
-------------------------------------------------------------------------------|

------------------------------------------------------10---------------------------|
----13---------------------------------------------------13-10---------------------|
-14----12(14)12-10----10-12-12(14)12--10----10-12(14)----------12(14)12-10----12---|
-------------------12--------------------12--------------------------------12---12-|
-----------------------------------------------------------------------------------|
-----------------------------------------------------------------------------------|

----------------------------------------------------------------------13-------|
-----------13--13-----13-----15(18)--15(18)~15-13-15-13h15--15--13h15----------|
-10-12/14--14--14--14----14----------------------------------------------14\12-|
-------------------------------------------------------------------------------|
-------------------------------------------------------------------------------|
-------------------------------------------------------------------------------|

-------------------------------------------10---------------13(15)-13-10h13p10----|
----------------------------------------13----13(15)-(15)13--------------------13-|
-10-12-10----------10----12-10----------------------------------------------------|
----------12-10-12----12-------12-10-12-------------------------------------------|
----------------------------------------------------------------------------------|
----------------------------------------------------------------------------------|

-10--10-----10~--10------------------------------------------------|
---------13---------13---------------------------------------------|
-----------------------12(14)-(14)12-10-12-10----------10----12-10-|
----------------------------------------------12-10-12----12-------|
-------------------------------------------------------------------|
-------------------------------------------------------------------|
   4x
||----------------||
||----------------||
||-12(14)--14(16)-||
||----------------||
||----------------||
||----------------||
Comments