Cream - White Room Chords & Tabs

 

White Room Chords & Tabs

Cream Chords & Tabs

Version: 2 Type: Chords 0 ratings
1 star 2 stars 3 stars 4 stars 5 stars
comments

White Room Chords

   
 White Room
 (Bruce/Brown) 
 By The Cream
 From the album "Wheels of Fire" 1968
 Tabbed by Halfdan Baadsvik
 halfdan@eskobar.nu

 Cadd9 - X32030 or 335533
 G/B   - X20033
 Am7   - 002010
[ Tab from: http://www.guitartabs.cc/tabs/c/cream/white_room_crd_ver_2.html ]
    Intro: 
      Gm     F      Dm     C          Am7
 e|---3~~~---1~~~---1~~~---0------|---0------|
 B|---3~~~---1~~~---3~~~---1~~~---|---1~~~---|
 G|---3~~~---2~~~---2~~~---0------|---0------|
 D|-------------------------------|----------|
 A|-------------------------------|----------|
 E|-------------------------------|----------|
                2x              then/
 
          D            Cadd9          G/B          
   In the white room       with black curtains
 e|-------------2-----------------------------|
 B|-------------3----3-----3----3---------3---|
 G|-------------2----------0--------------0---|
 D|-------0----------------2--------------0---|
 A|--------------------3-3------------2-2-----|
 E|-------------------------------------------|
      Bb  Cadd9    D         Cadd9   G/B     Bb  Cadd9
    near    the    station
 e|-------------------2------------------------------|
 B|---3---3-----------3----3-----3-3-----3---3---3---|
 G|---3---5-----------2----------0-------0---3---5---|
 D|---3---5--------0-------------2-------0---3---5---|
 A|-2---1---3----------------3-3-----2-2---2---1---3-|
 E|--------------------------------------------------|
     
 Blackroof country no gold pavements tired starlings   
 Silver horses run down moonbeams in your dark eyes
 Dawnlight smiles on your leaving my contentment
 
    C                 G/B             Bb        A
    I'll wait in this place where the sun never shines
 e|---------------------------------------------------|
 B|-1~~~--------------3~~~------------3~~~------2~~~--|
 G|-0-----------------0---------------3~~~------2~~~--|
 D|-2~~~--------------0---------------3~~~------2~~~--|
 A|-3~~~--------------2~~~------------3h5~------2h4~--|
 E|---------------------------------------------------|
    C            G/B             Bb      C        D
    Wait in this place where the shadows run from themselves
 e|-----------------------------------------------2~~~--|
 B|-1~~~---------3~~~------------3~~~----5~~~-----3~~~--|
 G|-0------------0---------------3~~~----5~~~-----2~~~--|
 D|-2~~~---------0---------------3~~~----5~~~-----2h4~--|
 A|-3~~~---------2~~~------------3h5~----5h7~-----------|
 E|-----------------------------------------------------|

 You said no strings could secure you at the station
 Platform ticket restless diesels goodbye windows
 I walked into such a sad time at the station
 As I walked out felt my own need just beginning

 I'll wait in the queue where the trains come by
 I'll wait for you where the shadows run from themselves

 Gm    F    Dm    C 
 Gm    F    Dm    C  Am7

 At the party she was kindness in the hard crowd
 Consolation from the old wound now forgotten
 Yellow tigers crouched in jungles in her dark eyes
 She's just dressing goodbye windows, tired starlings

 I'll sleep in this place with the lonely crowd
 Lie in the dark where the shadows run from themselves

 Gm    F    Dm    C
 Gm    F    Dm    C  Am7

 Solo over the verse chords. Use the pentatonic scale in Dm.
Comments