Cream - Toad Chords & Tabs

 

Toad Chords & Tabs

Cream Chords & Tabs

Version: 1 Type: Tab 0 ratings
1 star 2 stars 3 stars 4 stars 5 stars
comments

Toad Tab

   
Artist: Cream
Album: Fresh Cream
Song: Toad
Composer: Ginger Baker
Tabbed by: ecfanrm826
The tab is a little confusing but you'll get it if you listen to the song
The opening chord is an A Form E power Chord Which is X799XX
Next it's
E|-----------------------|
B|-------------------0---|
G|-2-0-----------0-2-----|
D|-----2-----0-2---------|
A|---------2-------------|
E|-----------------------|
Before the solos Guitar and drums it's
E----------|
B----------|
G----------|
D----------|
A-2-0------|
E-----3-0--|
the solo Clapton is playing with feedback the during parts

[ Tab from: http://www.guitartabs.cc/tabs/c/cream/toad_tab.html ]
    ~~~  ~~~  ~~~                                                ~~~
E-------------------------------------------------------------------|
B-------------------------------------------------------------------|
G------------14--12-------------------------------------------------|
D-12---14------------1412h14p12--12---------------------------14---|
A------------------------------------14------------------12-14------|
E-----------------------------------------15-12---15-12-------------|

The closing Chord is E7#9 Which is X7678X
| b  bend
| r  release
| /  slide up
| \  slide down
| h  hammer-on
| p  pull-off
| ~  vibrato
| +  harmonic
Comments