Cream - Sunshine Of Your Love Chords & Tabs

 

Sunshine Of Your Love Chords & Tabs

Cream Chords & Tabs

Version: 3 Type: Tab 1 rating
1 star 2 stars 3 stars 4 stars 5 stars
comments

Sunshine Of Your Love Tab

   
				
This tab contains no solo but all other parts.

Riff A
e-------------------------------------------------------------
b-------------------------------------------------------------
g-------------------------------------------------------------
d---12--12--10--12------------------------------------
a--------------------------12--11--10------8-----------
e-------------------------------------------10-----10--10
[ Tab from: http://www.guitartabs.cc/tabs/c/cream/sunshine_of_your_love_tab_ver_3.html ]
Riff B
e-------------------------------------------
b--12--12--10--12---------------------------
g--12--12--10--12---------------------------
d--12--12--10--12--12--11--10------8--------
a--10--10--8---10--------------------10-----10--10
e-------------------------------------------

        A              C?       D?          X      .....
  xx222x    x35555   x54x3x   xxxxxx  Hold Note

  
Chorus Riff:
A A A  X  C?....  X   D?.......  X 

Chorus Out:
A.... A..... A...... AAAAAAAAA


Riff Order:

Riff A: 6x
Riff B: 2x
Riff A: 2x
  
Chorus Riff: 3x
Chorus Out:  1x

Play this whole riff order 2 times, 1 time behind the solo, and then again.
Comments