Cream - Sunshine Of Your Love Chords & Tabs

 

Sunshine Of Your Love Chords & Tabs

Cream Chords & Tabs

Version: 2 Type: Tab 4 ratings
1 star 2 stars 3 stars 4 stars 5 stars
comments

Sunshine Of Your Love Tab

If you think the other guys version is right check out this one!!
----------------------------------------------
----------------------------------------------
----------------------------------------------
--------12----12---10--12-------------------------4x
---------------------------12-11-10-------8---
-------------------------------------10------10
[ Tab from: http://www.guitartabs.cc/tabs/c/cream/sunshine_of_your_love_tab_ver_2.html ]
----------------------------------------------
----------------------------------------------
-----------5----5---3--5--------------------------2x
-------------------------5---4-----3----1-----
---------------------------------------3--3---


---------------------------------------------
---------------------------------------------
-------(2)----------------------------------------------------3x()=3x
-------(2)--(3)-------------------------------------
-------(0)--(5)--(3)-----------------------------------
---------------(5)-----------------------------------



That is the whole thing so jam it and you will be jammin!!
Comments