Cream - Sunshine Of Your Love Chords & Tabs

 

Sunshine Of Your Love Chords & Tabs

Cream Chords & Tabs

Version: 16 Type: Tab 0 ratings
1 star 2 stars 3 stars 4 stars 5 stars
comments

Sunshine Of Your Love Tab

   
Sunshine of Your Love by Cream
Tabbed by Kevin
Questions or comments e-mail me at:
slickturtle13me@yahoo.com

Intro:
e|----------------------|----------------------|
b|----------------------|----------------------|
g|----------------------|----------------------|
d|-12-12-10-12----------|----------------------|
a|--------------12---11-|-10--------8b---------|
e|----------------------|------10-------10-----|

e|----------------------|----------------------|
b|----------------------|----------------------|
g|----------------------|----------------------|
d|-12-12-10-12----------|----------------------|
a|--------------12---11-|-10--------8b---------|
e|----------------------|------10-------10-----|

Verse:
   D  D  C  D
e|----------------------|----------------------|
b|----------------------|----------------------|
g|-11-11-9--11----------|-----------10b--------|
d|-12-12-10-12----------|------12--------12----|
a|-12-12-10-12--12---11-|-10-------------------|
e|-10-10-8--10----------|----------------------|

   D  D  C  D
e|----------------------|----------------------|
b|----------------------|----------------------|
g|-11-11-9--11----------|-----------10b--------|
d|-12-12-10-12----------|------12--------12----|
a|-12-12-10-12--12---11-|-10-------------------|
e|-10-10-8--10----------|----------------------|

   D  D  C  D
e|----------------------|----------------------|
b|----------------------|----------------------|
g|-11-11-9--11----------|-----------10b--------|
d|-12-12-10-12----------|------12--------12----|
a|-12-12-10-12--12---11-|-10-------------------|
e|-10-10-8--10----------|----------------------|

   D  D  C  D
e|----------------------|----------------------|
b|----------------------|----------------------|
g|-11-11-9--11----------|-----------10b--------|
d|-12-12-10-12----------|------12--------12----|
a|-12-12-10-12--12---11-|-10-------------------|
e|-10-10-8--10----------|----------------------|

   G  G  F  G
e|----------------------|----------------------|
b|-12-12-10-12----------|----------------------|
g|-12-12-10-12----------|----------------------|
d|-12-12-10-12--12---11-|-10--------8b---------|
a|-10-10-8--10----------|------10-------10-----|
e|----------------------|----------------------|

   G  G  F  G
e|----------------------|----------------------|
b|-12-12-10-12----------|----------------------|
g|-12-12-10-12----------|----------------------|
d|-12-12-10-12--12---11-|-10--------8b---------|
a|-10-10-8--10----------|------10-------10-----|
e|----------------------|----------------------|

   D  D  C  D
e|----------------------|----------------------|
b|----------------------|----------------------|
g|-11-11-9--11----------|-----------10b--------|
d|-12-12-10-12----------|------12--------12----|
a|-12-12-10-12--12---11-|-10-------------------|
e|-10-10-8--10----------|----------------------|

   D  D  C  D
e|----------------------|----------------------|
b|----------------------|----------------------|
g|-11-11-9--11----------|-----------10b--------|
d|-12-12-10-12----------|------12--------12----|
a|-12-12-10-12--12---11-|-10-------------------|
e|-10-10-8--10----------|----------------------|

Chorus:
     A    A  A              C         G
e|----------------------|----------------------|
b|----------------------|---5------------------|
g|---6----6--6----------|---5---------4--------|
d|---7----7--7----------|---5---------5--------|
a|---7----7--7----------|---3---------5--------|
e|---5----5--5----------|-------------3--------|

     A    A  A              C         G
e|----------------------|----------------------|
b|----------------------|---5------------------|
g|---6----6--6----------|---5---------4--------|
d|---7----7--7----------|---5---------5--------|
a|---7----7--7----------|---3---------5--------|
e|---5----5--5----------|-------------3--------|

     A    A  A              C         G
e|----------------------|----------------------|
b|----------------------|---5------------------|
g|---6----6--6----------|---5---------4--------|
d|---7----7--7----------|---5---------5--------|
a|---7----7--7----------|---3---------5--------|
e|---5----5--5----------|-------------3--------|

     A    A  A    A  A     A  A
e|----------------------|----------------------|
b|----------------------|----------------------|
g|---6----6--6----6--6--|--6--6----------------|
d|---7----7--7----7--7--|--7--7----------------|
a|---7----7--7----7--7--|--7--7----------------|
e|---5----5--5----5--5--|--5--5----------------|

Verse:
   D  D  C  D
e|----------------------|----------------------|
b|----------------------|----------------------|
g|-11-11-9--11----------|-----------10b--------|
d|-12-12-10-12----------|------12--------12----|
a|-12-12-10-12--12---11-|-10-------------------|
e|-10-10-8--10----------|----------------------|

   D  D  C  D
e|----------------------|----------------------|
b|----------------------|----------------------|
g|-11-11-9--11----------|-----------10b--------|
d|-12-12-10-12----------|------12--------12----|
a|-12-12-10-12--12---11-|-10-------------------|
e|-10-10-8--10----------|----------------------|

   D  D  C  D
e|----------------------|----------------------|
b|----------------------|----------------------|
g|-11-11-9--11----------|-----------10b--------|
d|-12-12-10-12----------|------12--------12----|
a|-12-12-10-12--12---11-|-10-------------------|
e|-10-10-8--10----------|----------------------|

   D  D  C  D
e|----------------------|----------------------|
b|----------------------|----------------------|
g|-11-11-9--11----------|-----------10b--------|
d|-12-12-10-12----------|------12--------12----|
a|-12-12-10-12--12---11-|-10-------------------|
e|-10-10-8--10----------|----------------------|

   G  G  F  G
e|----------------------|----------------------|
b|-12-12-10-12----------|----------------------|
g|-12-12-10-12----------|----------------------|
d|-12-12-10-12--12---11-|-10--------8b---------|
a|-10-10-8--10----------|------10-------10-----|
e|----------------------|----------------------|

   G  G  F  G
e|----------------------|----------------------|
b|-12-12-10-12----------|----------------------|
g|-12-12-10-12----------|----------------------|
d|-12-12-10-12--12---11-|-10--------8b---------|
a|-10-10-8--10----------|------10-------10-----|
e|----------------------|----------------------|

   D  D  C  D
e|----------------------|----------------------|
b|----------------------|----------------------|
g|-11-11-9--11----------|-----------10b--------|
d|-12-12-10-12----------|------12--------12----|
a|-12-12-10-12--12---11-|-10-------------------|
e|-10-10-8--10----------|----------------------|

   D  D  C  D
e|----------------------|----------------------|
b|----------------------|----------------------|
g|-11-11-9--11----------|-----------10b--------|
d|-12-12-10-12----------|------12--------12----|
a|-12-12-10-12--12---11-|-10-------------------|
e|-10-10-8--10----------|----------------------|

Chorus:
     A    A  A              C         G
e|----------------------|----------------------|
b|----------------------|---5------------------|
g|---6----6--6----------|---5---------4--------|
d|---7----7--7----------|---5---------5--------|
a|---7----7--7----------|---3---------5--------|
e|---5----5--5----------|-------------3--------|

     A    A  A              C         G
e|----------------------|----------------------|
b|----------------------|---5------------------|
g|---6----6--6----------|---5---------4--------|
d|---7----7--7----------|---5---------5--------|
a|---7----7--7----------|---3---------5--------|
e|---5----5--5----------|-------------3--------|
[ Tab from: http://www.guitartabs.cc/tabs/c/cream/sunshine_of_your_love_tab_ver_16.html ]
     A    A  A              C         G
e|----------------------|----------------------|
b|----------------------|---5------------------|
g|---6----6--6----------|---5---------4--------|
d|---7----7--7----------|---5---------5--------|
a|---7----7--7----------|---3---------5--------|
e|---5----5--5----------|-------------3--------|

     A    A  A    A  A     A  A
e|----------------------|----------------------|
b|----------------------|----------------------|
g|---6----6--6----6--6--|--6--6----------------|
d|---7----7--7----7--7--|--7--7----------------|
a|---7----7--7----7--7--|--7--7----------------|
e|---5----5--5----5--5--|--5--5----------------|

Under solo:
   D  D  C  D
e|----------------------|----------------------|
b|----------------------|----------------------|
g|-11-11-9--11----------|----------------------|
d|-12-12-10-12----------|----------------------|
a|-12-12-10-12--12---11-|-10--------8b---------|
e|-10-10-8--10----------|------10-------10-----|

   D  D  C  D
e|----------------------|----------------------|
b|----------------------|----------------------|
g|-11-11-9--11----------|----------------------|
d|-12-12-10-12----------|----------------------|
a|-12-12-10-12--12---11-|-10--------8b---------|
e|-10-10-8--10----------|------10-------10-----|

   D  D  C  D
e|----------------------|----------------------|
b|----------------------|----------------------|
g|-11-11-9--11----------|----------------------|
d|-12-12-10-12----------|----------------------|
a|-12-12-10-12--12---11-|-10--------8b---------|
e|-10-10-8--10----------|------10-------10-----|

   D  D  C  D
e|----------------------|----------------------|
b|----------------------|----------------------|
g|-11-11-9--11----------|----------------------|
d|-12-12-10-12----------|----------------------|
a|-12-12-10-12--12---11-|-10--------8b---------|
e|-10-10-8--10----------|------10-------10-----|

   G  G  F  G
e|----------------------|----------------------|
b|-12-12-10-12----------|----------------------|
g|-12-12-10-12----------|----------------------|
d|-12-12-10-12--12---11-|-10--------8b---------|
a|-10-10-8--10----------|------10-------10-----|
e|----------------------|----------------------|

   G  G  F  G
e|----------------------|----------------------|
b|-12-12-10-12----------|----------------------|
g|-12-12-10-12----------|----------------------|
d|-12-12-10-12--12---11-|-10--------8b---------|
a|-10-10-8--10----------|------10-------10-----|
e|----------------------|----------------------|

   D  D  C  D
e|----------------------|----------------------|
b|----------------------|----------------------|
g|-11-11-9--11----------|----------------------|
d|-12-12-10-12----------|----------------------|
a|-12-12-10-12--12---11-|-10--------8b---------|
e|-10-10-8--10----------|------10-------10-----|

   D  D  C  D
e|----------------------|----------------------|
b|----------------------|----------------------|
g|-11-11-9--11----------|----------------------|
d|-12-12-10-12----------|----------------------|
a|-12-12-10-12--12---11-|-10--------8b---------|
e|-10-10-8--10----------|------10-------10-----|

     A    A  A              C         G
e|----------------------|----------------------|
b|----------------------|---5------------------|
g|---6----6--6----------|---5---------4--------|
d|---7----7--7----------|---5---------5--------|
a|---7----7--7----------|---3---------5--------|
e|---5----5--5----------|-------------3--------|

     A    A  A              C         G
e|----------------------|----------------------|
b|----------------------|---5------------------|
g|---6----6--6----------|---5---------4--------|
d|---7----7--7----------|---5---------5--------|
a|---7----7--7----------|---3---------5--------|
e|---5----5--5----------|-------------3--------|

     A    A  A              C         G
e|----------------------|----------------------|
b|----------------------|---5------------------|
g|---6----6--6----------|---5---------4--------|
d|---7----7--7----------|---5---------5--------|
a|---7----7--7----------|---3---------5--------|
e|---5----5--5----------|-------------3--------|

     A    A  A    A  A     A  A
e|----------------------|----------------------|
b|----------------------|----------------------|
g|---6----6--6----6--6--|--6--6----------------|
d|---7----7--7----7--7--|--7--7----------------|
a|---7----7--7----7--7--|--7--7----------------|
e|---5----5--5----5--5--|--5--5----------------|

Verse:
   D  D  C  D
e|----------------------|----------------------|
b|----------------------|----------------------|
g|-11-11-9--11----------|-----------10b--------|
d|-12-12-10-12----------|------12--------12----|
a|-12-12-10-12--12---11-|-10-------------------|
e|-10-10-8--10----------|----------------------|

   D  D  C  D
e|----------------------|----------------------|
b|----------------------|----------------------|
g|-11-11-9--11----------|-----------10b--------|
d|-12-12-10-12----------|------12--------12----|
a|-12-12-10-12--12---11-|-10-------------------|
e|-10-10-8--10----------|----------------------|

   D  D  C  D
e|----------------------|----------------------|
b|----------------------|----------------------|
g|-11-11-9--11----------|-----------10b--------|
d|-12-12-10-12----------|------12--------12----|
a|-12-12-10-12--12---11-|-10-------------------|
e|-10-10-8--10----------|----------------------|

   D  D  C  D
e|----------------------|----------------------|
b|----------------------|----------------------|
g|-11-11-9--11----------|-----------10b--------|
d|-12-12-10-12----------|------12--------12----|
a|-12-12-10-12--12---11-|-10-------------------|
e|-10-10-8--10----------|----------------------|

   G  G  F  G
e|----------------------|----------------------|
b|-12-12-10-12----------|----------------------|
g|-12-12-10-12----------|----------------------|
d|-12-12-10-12--12---11-|-10--------8b---------|
a|-10-10-8--10----------|------10-------10-----|
e|----------------------|----------------------|

   G  G  F  G
e|----------------------|----------------------|
b|-12-12-10-12----------|----------------------|
g|-12-12-10-12----------|----------------------|
d|-12-12-10-12--12---11-|-10--------8b---------|
a|-10-10-8--10----------|------10-------10-----|
e|----------------------|----------------------|

   D  D  C  D
e|----------------------|----------------------|
b|----------------------|----------------------|
g|-11-11-9--11----------|-----------10b--------|
d|-12-12-10-12----------|------12--------12----|
a|-12-12-10-12--12---11-|-10-------------------|
e|-10-10-8--10----------|----------------------|

   D  D  C  D
e|----------------------|----------------------|
b|----------------------|----------------------|
g|-11-11-9--11----------|-----------10b--------|
d|-12-12-10-12----------|------12--------12----|
a|-12-12-10-12--12---11-|-10-------------------|
e|-10-10-8--10----------|----------------------|

Chorus:
     A    A  A              C         G
e|----------------------|----------------------|
b|----------------------|---5------------------|
g|---6----6--6----------|---5---------4--------|
d|---7----7--7----------|---5---------5--------|
a|---7----7--7----------|---3---------5--------|
e|---5----5--5----------|-------------3--------|

     A    A  A              C         G
e|----------------------|----------------------|
b|----------------------|---5------------------|
g|---6----6--6----------|---5---------4--------|
d|---7----7--7----------|---5---------5--------|
a|---7----7--7----------|---3---------5--------|
e|---5----5--5----------|-------------3--------|

     A    A  A              C         G
e|----------------------|----------------------|
b|----------------------|---5------------------|
g|---6----6--6----------|---5---------4--------|
d|---7----7--7----------|---5---------5--------|
a|---7----7--7----------|---3---------5--------|
e|---5----5--5----------|-------------3--------|

     A    A  A    A  A   
e|----------------------|
b|----------------------|
g|---6----6--6----6--6--| (repeat until end of song)
d|---7----7--7----7--7--|
a|---7----7--7----7--7--|
e|---5----5--5----5--5--|
Comments