Cream - Sunshine Of Your Love Chords & Tabs

 

Sunshine Of Your Love Chords & Tabs

Cream Chords & Tabs

Version: 14 Type: Tab 0 ratings
1 star 2 stars 3 stars 4 stars 5 stars
comments

Sunshine Of Your Love Tab

SOLO:
E-------------------------------------------------------|
B---------------------------12--------------------------|
G----12--12B~~~~------12-14----12B--12B--12--12B~~~~----|
D-------------------------------------------------------|
A-------------------------------------------------------|
E-------------------------------------------------------|

E-------------------------------------------------------|
B------------------------10B----------------------------|
G---9b--(9)--7--9---7-----9B-------7~~~-----------------|
D-------------------------------------------------------|
A-------------------------------------------------------|
E-------------------------------------------------------|

E-------------------------------------------------------|
B-------------10B--10B--10B-----------------------------|
G-------7h9----9B---9B---9B---(9)---7h9p7---7~~~--------|
D---7h9-------------------------------------------------|
A-------------------------------------------------------|
E-------------------------------------------------------|

E-------------------------------------------------------------|
B-------------------------------------------------------------|
G-10Bb--10Bb--10Bb-10Bb-10~~~-10Bb-----9Bb-----7----9B--------|
D-----------------------------------11------9-----------------|
A-------------------------------------------------------------|
E-------------------------------------------------------------|


E--------------------------------------------------------------|
B--------------------------------------------------------------|
G-----7h9-10------7--9B--9Bb--9b--7--9--7h9--7~~~--------------|
D-7h9---------9------------------------------------------------|
A--------------------------------------------------------------|
E--------------------------------------------------------------|

[ Tab from: http://www.guitartabs.cc/tabs/c/cream/sunshine_of_your_love_tab_ver_14.html ]
E--------------------------------------------------------------|
B11/13---------------------------------------------------------|
G12/14--12-10-11----10-------------10h11~~~--------------------|
D----------------12------12-10-12------------------------------|
A--------------------------------------------------------------|
E--------------------------------------------------------------|


E-10-----------------------------------------------------------|
B-10----------------13-----------------------------13----------|
G----10----10-12B------12b-(12)12--10------10--12B----12-10~~~-|
D-------12------------------------------12---------------------|
A--------------------------------------------------------------|
E--------------------------------------------------------------|

E--------10---------------------------------------------------------|
B-----10------------------------------------------------------------|
G-12B---------12b---(12)p10-----10-------------------------10----10-|
D---------------------------12------12---------10----10-10h12-10h12-|
A---------------------------------------12--10h12-10h12-------------|
E-------------------------------------------------------------------|


E---------------------------------------------------------------------------|
B-10--12--------13----13--13h15--13---------------------------13--15B-13-15-|
G-10--12--12/14----14----------------14\12-10-12p10-12B-12/14---------------|
D---------------------------------------------------------------------------|
A---------------------------------------------------------------------------|
E---------------------------------------------------------------------------|


E-13----------------------------------------------------------------------|
B-13-13---------------------------13131313--------------------------------|
G-------14\12-10----1012p10-12/14----------14\12-10bb---------------------|
D----------------12-----------------------------------12p10----10h12~~~~--|
A-----------------------------------------------------------12------------|
E-------------------------------------------------------------------------|
Comments