Cream - Sunshine Of Your Love Chords & Tabs

 

Sunshine Of Your Love Chords & Tabs

Cream Chords & Tabs

Version: 1 Type: Tab 4 ratings
1 star 2 stars 3 stars 4 stars 5 stars
comments

Sunshine Of Your Love Tab

Song: Sunshine of Your Love
Band: Cream
Tabbed by: SpRiNgWaFfLe

Intro
e---------------------
b---------------------
g-7-7-5-7-------------
d---------7-6-5-0-3-0-  x2
a---------------------
e---------------------  

Verse
e----------------------
b------------------6---
g-7-7-5-7-------/7---7-
d-7-7-5-7-7-6-5-------- x4
a-5-5-3-5--------------
e----------------------
[ Tab from: http://www.guitartabs.cc/tabs/c/cream/sunshine_of_your_love_tab.html ]
e---------------------
b---------------------
g---------------------
d-5-5-3-5------------- x2
a-5-5-3-5-5-4-3---1---
e-3-3-1-3-------3---3-

e----------------------
b------------------6---
g-7-7-5-7-------/7---7-
d-7-7-5-7-7-6-5-------- x2
a-5-5-3-5--------------
e----------------------

Chorus
e------------------|          
b.----------------.|          
g----------5-------|          
d--7-7-7---5---5---| x3 then strum A a bunch 
a.-7-7-7---3---5--.|    then back to Verse       
e--5-5-5-------3---|    

 One of the coolsest songs ever. Peace I'm out!     
Comments