Cream - Sunshine Of Your Love Chords & Tabs

 

Sunshine Of Your Love Chords & Tabs

Cream Chords & Tabs

Version: 7 Type: Bass Tab 0 ratings
1 star 2 stars 3 stars 4 stars 5 stars
comments

Sunshine Of Your Love Bass Tab

This song is very easy and fun to play.

Intro/Verse
G:----------------------------
D:----------------------------
A:-------------12-11-10---8---
E:-10-10-8-10----------10--10-

You can throw a bend in on the 8 sometimes, sounds cooler. And also, you might
want to try holding your A's, B's and C#'s on the A string a little longer.
[ Tab from: http://www.guitartabs.cc/tabs/c/cream/sunshine_of_your_love_btab_ver_7.html ]
2nd Part of Verse:
G:----------------------------
D:------------12-11-10--8-----
A:-10-10-8-10---------10--10--
E:----------------------------

Chrous:
G:------------------------------------------------------
D:------------------------------------------------------
A:---------3-------------3----------3-------------------
E:-5-5-5------3--5-5-5----3---5-5-5---3--5-5-5-5-5-5-5-5


That's pretty much it. During the solo, play the normal verse 4 times, then do
the octave higher version twice, then the normal 2 more times, and then the
chrous.  fun song.
Comments