Cream - Sunshine Of Your Love Chords & Tabs

 

Sunshine Of Your Love Chords & Tabs

Cream Chords & Tabs

Version: 1 Type: Bass Tab 4 ratings
1 star 2 stars 3 stars 4 stars 5 stars
comments

Sunshine Of Your Love Bass Tab

                         
                           CREAM

                     Sunshine of your love

                    
Wait for guitar solo to play twice then come in with the bass

E-------------------------------------
A---5535------------------------------ x4
G--------7-6-5-030--------------------
D-------------------------------------

[ Tab from: http://www.guitartabs.cc/tabs/c/cream/sunshine_of_your_love_btab.html ]
E-------------------------------------
A------------------------------------- x2
G---5535------------------------------
D--------7-6-5-030--------------------

back to beginning and play twice

E---555--------------3---------------- 
A--------------3---------------------- 3x
G-------------------------------------
D-------------------------------------



E---5-5-5-5-55555555------------------
A-------------------------------------
G-------------------------------------
D-------------------------------------

Then back to beginning and start all over again.

This is my first tab so enjoy and have fun!!!!!!



Comments