Cream - Strange Brew Chords & Tabs

 

Strange Brew Chords & Tabs

Cream Chords & Tabs

Version: 9 Type: Tab

Strange Brew Tab

here is the classic Strange brew by cream
standard tuning



h-hammer on
p-pull off
pb-pre bend
pb7r- pre bend then release the bend back 2 original note
fb-full bend
hb-half bend
qb-quarter bend
/or\- slide
~- vibrato

im pretty sure that this is 100% it sounds rite any suggestions then let me know.
i havnt included any of the lyrics or timing so u will have 2 listen to the song.

moderate funk/rock
rhythm

this is played all the way through the song

e|----------------5---------------------|
b|----------------5---------------------|
g|----------------6---------------------|
d|----------------7-----------5--5h7----|
a|----------------------5h7-------------|
e|------5----5--------------------------|

lead part
e|---------------------------------------------------------------------|
b|-8h10~~~~~~~~~~~--8h10~~-8--8----------------------------------------|
g|------------------------------7~~~~~~~5------7-----5hb----pb7r(7)p5--|
d|---------------------------------------------------------------------|
a|---------------------------------------------------------------------|
e|---------------------------------------------------------------------|


e|-----------------8p5~~~~~~~~-8p5~~~8-5---------------|
b|-----------------------------------------------------|
g|-7------5hb------------------------------7~~~~-5hb---|
d|---7-------------------------------------------------|
a|-----------------------------------------------------|
e|-----------------------------------------------------|



e|-------------------------------------8---------------|
b|---------------------------------8-------10----8-----|
g|--------------------7/9------------------------------|
d|-7---7-----------------------------------------------|
a|-----------------------------------------------------|
e|-----------------------------------------------------|



e|---------------5-------------------------------------|
b|--------------------5--------------------------------|
g|---7fb~~~~~~----------------7---5--------------------|
d|------------------------------------7----------------|
a|-----------------------------------------7-----------|
e|-----------------------------------------------------|

there is a big gap here were there is no lead guitar but the rythm carries on.


e|-----------------------------------------------------|
b|-----------------------------------------------------|
g|-----7------5-----7-----5-------------5--------------|
d|-----------------------------7-----------------------|
a|-----------------------------------------------------|
e|-----------------------------------------------------|



e|---------------------------------------------------------|
b|------8fb~~~~~~~-~~~~---pb8r(8)---5----------------------|
g|--------------------------------------7-----5hb----------|
d|--------------------------------------------------7------|
a|-------------------------------------------------------7-|
e|---------------------------------------------------------|



e|---------------------5----------------------------------------|
b|-------------------------8---5-----------8--------------------|
g|----7fb~~~~~~~~~~~~~----------------7fb-----pb7r(7)--5~~~7fb--|
d|--------------------------------------------------------------|
a|--------------------------------------------------------------|
e|--------------------------------------------------------------|


there is another short break here.


e|---------5------------------------------------------------|
b|------------8--5------------------------------------------|
g|---7fb---------------7-----5hb----------------------------|
d|--------------------------------------7-------------------|
a|-------------------------------------------7------7-------|
e|----------------------------------------------------------|



e|------------------3-----8---------------------------------|
b|-------------5------------------10~~~~~~~~----------------|
g|----------------------------------------------------------|
d|----------------------------------------------------------|
a|----------------------------------------------------------|
e|----------------------------------------------------------|



e|---------------------------5-----------------------------------|
b|------------------------------8---5---------8------------------|
g|--------7fb~~~~~~~~~~~~-------------7fb------pb7r(7)---5~~~7fb-|
d|---------------------------------------------------------------|
a|---------------------------------------------------------------|
e|---------------------------------------------------------------|


[ Tab from: http://www.guitartabs.cc/tabs/c/cream/strange_brew_tab_ver_9.html ]
e|-----------------5----------------------------------------------------|
b|----------------------5-------------------------------------13----15--|
g|-----7fb~~~~~~~~~--------------7---5------------------14--------------|
d|-----------------------------------------7----------------------------|
a|----------------------------------------------7-----------------------|
e|----------------------------------------------------------------------|



e|-------------------------------------------------------------------------|
b|----15fb------15fbr(15)---13--13-----------13hb------pb15r(15)---15---13-|
g|-14-------------------------------14~~~~~~~------------------------------|
d|-------------------------------------------------------------------------|
a|-------------------------------------------------------------------------|
e|-------------------------------------------------------------------------|



e|----------------------------------8------------------------------------5-|
b|-----------------13\-----------8------10p8-------------------------------|
g|-14---14~~~~~~~~~----------/9--------------7---5hb----------------/6-----|
d|-----------------------------------------------------7-----7~~~~~~-------|
a|-------------------------------------------------------------------------|
e|-------------------------------------------------------------------------|



e|-------------------------------------------------------------------------|
b|-8~~~--13hb--15--13fb--13fb--13fb--13fb--13fb--13fb--13-15-13fb--15-13hb-|
g|-----14------------------------------------------------------------------|
d|-------------------------------------------------------------------------|
a|-------------------------------------------------------------------------|
e|-------------------------------------------------------------------------|



e|------------------5----------------------------------------------|
b|-----------------------8p5---------------------------------------|
g|-14~~~~~~(14)\---------------7----5hb----------------------------|
d|------------------------------------------7----------------------|
a|------------------------------------------------7~~~~~~~~~~~~~~--|
e|-----------------------------------------------------------------|



e|--------------------------------------------------5--------------|
b|-/8~~~~~~~~~-----------------8-----------------------8p5------8--|
g|-/9~~~~~~~~~--------5----/9-----------------7fb~~~--------7/9----|
d|-----------------------------------------------------------------|
a|-----------------------------------------------------------------|
e|-----------------------------------------------------------------|



e|-----------------------|
b|-----------------------|
g|--7----5---------------|
d|------------7-----5----|
a|-----------------------|
e|-----------------------|



e|------------------------------------------------------|
b|-----------------------------5------------------------|
g|-----------------------------6------------------------|
d|-----------------------------7---------------5---5h7--|
a|-----7------------------------------5h7---------------|
e|-----5------------------------------------------------|



e|-----------------------------------------------------------------------|
b|-10fb~~~~~~10---8---10----8----10~~~~~~~~~~-----8fb~~~~8--8p5----------|
g|---------------------------------------------------------------7----5--|
d|-----------------------------------------------------------------------|
a|-----------------------------------------------------------------------|
e|-----------------------------------------------------------------------|



e|-----------------------------------------------------------8--5~~~---|
b|--------8fb~~~~~~~~~~~--8--------------------------------------------|
g|------------------------------------7fbr(7)--5--5--------------------|
d|---------------------------------------------------------------------|
a|---------------------------------------------------------------------|
e|---------------------------------------------------------------------|



e|----------|
b|----------|
g|----7fb---|
d|----------|
a|----------|
e|----------|



e|-------------5----------------------------------------------------|
b|---------5-------5---8p5---------------------------8--------------|
g|---7fb--------------------pb7r(7)----5h7p5----7/9-------9\7---5---|
d|------------------------------------------------------------------|
a|------------------------------------------------------------------|
e|------------------------------------------------------------------|




please comment and rate cheers.