Cream - Strange Brew Chords & Tabs

 

Strange Brew Chords & Tabs

Cream Chords & Tabs

Version: 8 Type: Tab

Strange Brew Tab

                                 Cream
                              Strange Brew

Standard Tuning
EADGBe

background throughout whole song
--------------------|
--------------6-----|
--------------5-----|
-------x-5h7--7-----|
---5h7--------------|
--------------------|
intro
--3h5--3h5-3------------------------8-5--8-5-8p5---------------8-------|
-------------3b---3--------------------------8p5-------------8---10-8--|
----------------5---5b---8p7p5-------------------7-5-----7/9-----------|
-------------------------------7---------------------7-----------------|
-----------------------------------------------------------------------|
-----------------------------------------------------------------------|

------5------------------|
--------8-5--------------|
--7b--------7-5----------|
-------------------------|
----------------7--------|
-------------------------|
strange brew killin whats inside of you

play this softly
------------------------|
------------------------|
--5-7/9-7-5-7-----------|
-------------7-7--------|
------------------------|
------------------------|
...with you

-------------------------|
--8b-8-5-----------------|
---------7-5-------------|
-------------7-----------|
---------------7---------|
-------------------------|
oh whatcha gonna do

------5---------------|
--------8-5-----------|
--7b--------7-5-------|
----------------7-----|
------------------7---|
----------------------|
strange brew killin whats inside of you

---------8--------|
-------8---10-----|
---7/9------------|
------------------|
------------------|
------------------|
.....to you
[ Tab from: http://www.guitartabs.cc/tabs/c/cream/strange_brew_tab_ver_8.html ]
------5----------------------|
--------8-5-------8----------|
--7b--------7-7/9---7-5------|
-----------------------------|
-----------------------------|
-----------------------------|
what kind of fool are you

------5------------------|
--------8-5--------------|
--7b--------7-5----------|
-------------------------|
----------------7--------|
-------------------------|
strange brew killin whats inside of you

solo
---------------------------------------------------------------8------------|
-------------------------------------------------------------8---10p8-------|
-----17-19b-----19b-19br-p17----17b---19b-19-17----17/---7/9---------9-7----|
--19---------19--------------19-----------------19----------------------7-7-|
----------------------------------------------------------------------------|
----------------------------------------------------------------------------|

----------------------------------------------------------------------------|
-----10-8----13-15-13b-13b-13b-13b-13b-13b-13-15-13-15-13-----10p8----------|
-7h9-------14--------------------------------------------14-------9-7-5-----|
----------------------------------------------------------------------------|
------------------------------------------------------------------------7-7-|
----------------------------------------------------------------------------|

-----------------|
--/5-------8-----|
-------7h9-------|
--/5-------------|
-----------------|
-----------------|
ignored...

-----5-------------------|
-------8-5-------8-------|
--7b-------7-7/9---7-5---|
-------------------------|
-------------------------|
-------------------------|
...wouldn't you be bored


outro
strange brew killin whats inside of you
-------5----------------------------|
-----5---8-5-----------8------------|
--7b---------7-5-7-7/9---7-5--------|
-----------------------------7------|
------------------------------------|
------------------------------------|

there it is
have fun
peace