Cream - Strange Brew Chords & Tabs

 

Strange Brew Chords & Tabs

Cream Chords & Tabs

Version: 6 Type: Tab 0 ratings
1 star 2 stars 3 stars 4 stars 5 stars
comments

Strange Brew Tab

   
CREAM

Strange Brew

tabbed by:budyholly82586

        A
e-------5-------------------------------------|
B-------5-------------------------------------|
G-------6-------------------------------------|
D-------7--------------5--5--5h7--------------|
A-0--0-----x-x--5h7-7-------------------------|
E---------------------------------------------|
           PM-      PM

       D9
e---------------------------------------------|
B-------5-------------------------------------|
G-------5-------------------------------------|
D-------4--------------5--5--5h7--------------|
A-5--5--5--x-x--5h7-7-------------------------|
E---------------------------------------------|
           PM-      PM

      E7add-3
e---------------------------------------------|
B-------8-------------------------------------|
G-------7-------------------------------------|
D-------6--------------5--5--5h7--------------|
A-7--7--7--x-x--5h7-7-------------------------|
E---------------------------------------------|
           PM-      PM


Guitar SOLO:
e---------------------------------------------|
B---------------------------------------------|
G----17-19B----------17-19B-19B--1717----17b--|
D-19---------------19----------------19-------|
A---------------------------------------------|
E---------------------------------------------|
[ Tab from: http://www.guitartabs.cc/tabs/c/cream/strange_brew_tab_ver_6.html ]
e---------------------------------------------|
B---------------------------------------------|
G-19B-(19)-------19--17------------17\--------|
D------------------------19---19--------------|
A---------------------------------------------|
E---------------------------------------------|

e-------8------------------------5------------|
B-----8---10p8----------------------8/--------|
G-7/9----------9\7-5bb------5h6---------------|
D----------------------7-7--------------------|
A---------------------------------------------|
E---------------------------------------------|

e------------------------------------------------------|
B--------15---------------------------15----15---------|
G-14-17B----17B-17B-17B-17B-17B-17B-17--17B---17b-14\--|
D------------------------------------------------------|
A------------------------------------------------------|
E------------------------------------------------------|

e---------------------------------------------|
B--10p8---------------------------------------|
G-------9---7---5bb---------------------------|
D---------------------7-----------------------|
A------------------------7~~~-----------------|
E---------------------------------------------|


INDEX:
B-full bend
B-half bend
bb-1/4 bend
~-vibrato
p-pull off
h-hammer on
/-slide down
\-slide up
(9)-ghost note
PM-palm mte
Comments