Cream - Strange Brew Chords & Tabs

 

Strange Brew Chords & Tabs

Cream Chords & Tabs

Version: 5 Type: Tab 0 ratings
1 star 2 stars 3 stars 4 stars 5 stars
comments

Strange Brew Tab

-----------------------------------------------------------------------
			     Strange Brew-Cream
-----------------------------------------------------------------------
Tabbed by: Brendan O'Donoghue

Tuning:EADGBE

E|----------------------------------------------------------8t---------
B|---10t-10-8-----------------------------8/10~-10b-10b-10t-----8-8----
G|-------------10--8-6-8-6~---8p6h8--4------------------------------10-
D|---------------------------------------------------------------------
A|---------------------------------------------------------------------
E|---------------------------------------------------------------------

E|-------------8b------| that's the intro
B|----------8-----10---|
G|-8---8/10------------|
D|---------------------|
A|---------------------|
E|---------------------|

E|----------------------------|---------------------|-10b-10----------|
B|--10t--12-------------------|---------------------|--------12-10----|
G|----------12-10-8-10-8------|---7(8)--6-5-6-5-6-5-|--------------12-|
D|----------------------------|---------------------|-----------------|
A|----------------------------|---------------------|-----------------|
E|----------------------------|---------------------|-----------------|
[ Tab from: http://www.guitartabs.cc/tabs/c/cream/strange_brew_tab_ver_5.html ]
E|-------------------|-------8-10--|----------------------------------|
B|-10t-10p8h10-------|--8/10-------|---8-10-8-10--------------8-10b---|
G|-------------10-8t-|-------------|-------------10-8-10-8/10---------|
D|-------------------|-------------|----------------------------------|
A|-------------------|-------------|----------------------------------|
E|-------------------|-------------|----------------------------------|
                                              Solo
E|-------------------|------------------------------------------------
B|--8-10-12-10-8-10--|-8-10-12b~--10-12b-12b-12b-10--10(12)-----12b---
G|-------------------|------------------------------------------------
D|-------------------|------------------------------------------------
A|-------------------|------------------------------------------------
E|-------------------|------------------------------------------------

E|------------------------------------------------------6b------------
B|--10-12b-10-10/to mute--------8b-6-6h8p6-4b-6b6h8/10-------8-10-12b
G|--------------------------5/6---------------------------------------
D|--------------------------------------------------------------------
A|--------------------------------------------------------------------
E|--------------------------------------------------------------------

E|---12b-12b-12b-12b-12b-12b-10-12b-1012b-----------------|
B|---------------------------------------------------------|
G|-------------------------------------------12/10-8----8--|
D|---------------------------------------------------10----|
A|---------------------------------------------------------|
E|---------------------------------------------------------|

E|------------------------|---8b-8h10p8-------------|-----------------|
B|----8b------------------|-------------10-8-10-8b--|--10b-8-6-8-6----|
G|----8b--8-10-8---13(14)-|-------------------------|-----------------|
D|------------------------|-------------------------|-----------------|
A|------------------------|-------------------------|-----------------|
E|------------------------|-------------------------|-----------------|
						    |3 times |
E|---------------------|----------|-----------------------------------
B|---8-6h64h6-4h6-4h6-|-10b-8b---|--10-8--------------------------10-
G|---------------------|----------|-------10-8------8h10p8----10/12---
D|---------------------|----------|-----------------------------------
A|---------------------|----------|-----------------------------------
E|---------------------|----------|-----------------------------------

E|-12-10----|
B|----------|
G|----------|
D|----------|
A|----------|
E|----------|

H hammer on
P pull of
/ slide
/to mute Slide to mute(listen to the record and you'll hear what it is)

Lyrics happen at the vertical line. Not always at the end on of line.

Enjoy :>)
Comments