Cream - Strange Brew Chords & Tabs

 

Strange Brew Chords & Tabs

Cream Chords & Tabs

Version: 3 Type: Tab 0 ratings
1 star 2 stars 3 stars 4 stars 5 stars
comments

Strange Brew Tab

   
     Im a first timer here............
here's the rhythm
     A11th              Amaj            Amin 
e----5------------------5---------------5-----------------
B----5------------------5---------------5-----------------
G----4------------------4---------------5-----------------
D----5-------5-5h7------7------5--5h7---7-----------------
A----7---5h7------------7--5h7----------7-----------------
E-5--5--------------5---5---------------5-----------------
 i think this just keeps repeating the whole song

here's the lead

e--8p5--------------------------------------------------
B------8--5---------------------------------------------
G------------5--7p5---------5---------------------------
D------------------------5-----7------------------------
A--------------------5/7--------------------------------
E-------------------------------------------------------
[ Tab from: http://www.guitartabs.cc/tabs/c/cream/strange_brew_tab_ver_3.html ]
Comments