Cream - Strange Brew Chords & Tabs

 

Strange Brew Chords & Tabs

Cream Chords & Tabs

Version: 2 Type: Tab 1 rating
1 star 2 stars 3 stars 4 stars 5 stars
comments

Strange Brew Tab

   
Cream

Album:Disraeli Gears [1967]

1. Strange Brew
Tuning:EADGBe

Rhythm:

      A                    D9                    E7#9                 D7#9
------5------------------------------------------------------------------------------|
------5--------------------5---------------------8--------------------6--------------|
------6--------------------5---------------------7--------------------5--------------|
------7-------5-5h7--------4-------5-5h7---------6-------5-5h7--------4-------5-5h7--|
------7---5h7----------5-5-----5h7-----------7-7-----5h7----------5-5-----5h7--------|
--5-5--------------------------------------------------------------------------------|

Rhythm Order: A-D9-A-E7#9-D7#9-A-D9-A-D9-A-E7#9-D7#9-A-D7#9-A-D9-A-E7#9-D9-A-D9-A-E7#9

D7#9-A-D9-A-D9-D7#9-A-E7#9-D7#9-A-D9-A-D7#9-A-E7#9-D7#9-A9

Intro
----------------------------------------------------8------------8----8---------------|
--8h10~--8h10-8-8-------------------------------------10~~~~~~~~----10---10-----------|
------------------9\7--5--7--5b----7b-7p5---5--------------------------------9\7---5b-|
------------------------------------------7-------------------------------------------|
--------------------------------------------------------------------------------------|
--------------------------------------------------------------------------------------|

-----------------8------------|
---------------8----10~~~~-8--|
----------/9------------------|
-7----------------------------|
------------------------------|
------------------------------|

Fills:

0:24
---------5------------------------|
-----------5----------------------|
-7b~~~~~-----7-5b-----------------|
------------------7------5h7------|
--------------------7-------------|
----------------------------------|


0:37               0:43
---------------------------------------------|
-------------------8b~~~~~--8-5--------------|
--7b-5-7-5----5-----------------7-5b---------|
-----------7--------------------------7------|
----------------------------------------7----|
---------------------------------------------|

0:52
-----5------------------------------|
-------8p5--------------------------|
7b---------7-5b---------------------|
-----------------7------------------|
-------------------7-7--------------|
------------------------------------|


1:06               1:10
------8--------------------5-----------------------------|
----8---10~~~~---------------8p5-------8\----------------|
/9-------------9----7b~~~~~-------/9------7-5~~~--/9-----|
---------------------------------------------------------|
---------------------------------------------------------|
---------------------------------------------------------|

[ Tab from: http://www.guitartabs.cc/tabs/c/cream/strange_brew_tab_ver_2.html ]
1:19
----------5-----------------------------|
------------5---------------------------|
7b~~~~~--------7-5b---------------------|
---------------------7------------------|
-----------------------7----------------|
----------------------------------------|


Guitar Solo:

-------------------------------------------------------------------------------------|
----13-15b------15b--15b-(15)-13-13---------13b------15b-(15)-15-13b------------13\--|
-14----------14---------------------14~~~~---------------------------14-14~~~~-------|
-------------------------------------------------------------------------------------|
-------------------------------------------------------------------------------------|
-------------------------------------------------------------------------------------|

------8---------------------------5--------------------------------------------------|
----8---10p8------------------5h6-----8---(8)/x-----13b-15-13b-13b-13b-13b-13b-13-15-|
-/9----------7-5b--------------------------------14----------------------------------|
------------------7-5--7~~~~---------------------------------------------------------|
-------------------------------------------------------------------------------------|
-------------------------------------------------------------------------------------|

------------------5------------------------------|
13b---15-13---------8p5--------------------------|
------------14\---------7-5b---------------------|
------------------------------7------------------|
--------------------------------7~~~~------------|
----------------------------------------8b--5----|

More Fills:

1:59                       2:04
-------------------------------5------------------------|
-/8~~~~---------8~~~~~-----------8p5-----8--------------|
-/9~~~~-7-5-7/9------------7b--------7/9---7-5----------|
-----------------------------------------------7-5~~~~~-|
--------------------------------------------------------|
--------------------------------------------------------|

2:19                              2:24
------------------------------------------------------------------------------|
-10b~~~~--10-8-10-8--8/10--8--8---8b~~~--8-8---------------8b~~~--8-----------|
---------------------------------------------7b7p5-7p5---------------7b---5-7-|
--------------------------------------------------------7---------------------|
------------------------------------------------------------------------------|
------------------------------------------------------------------------------|

2:39
-8-----------------------------|
---10~~~--8----------8---------|
---------------7/9-----9-------|
-------------------------------|
-------------------------------|
-------------------------------|

Outro:                                  A9

---------5---------------------------------------|
-------5---5-8p5-----------------8---------------|
----7b-----------7b(7)5h7p5-7/9----9\7--5--------|
----------------------------------------6--------|
----------------------------------------x--------|
-5--------------------------------------x--------|
Comments