Cream - Strange Brew Chords & Tabs

 

Strange Brew Chords & Tabs

Cream Chords & Tabs

Version: 1 Type: Tab 0 ratings
1 star 2 stars 3 stars 4 stars 5 stars
comments

Strange Brew Tab

   
Strange Brew - Eric Clapton/Cream  - Disraeli Gears

This is the main background rhythm ;


e--5-5-5----------------|
b------7--5-h6----------|
g------5--------55-h6---|   Part A
d------6----------------|
a------5----------------|
e------5----------------|
[ Tab from: http://www.guitartabs.cc/tabs/c/cream/strange_brew_tab.html ]
e------0----------------|
b--5-5-5--5-h6----------|
g------4--------55-h6---|   Part B
d------5----------------|
a------5----------------|
e------0----------------|

e-----------------------|
b--7-7-7---5-h6---------|
g------6--------55-h6---|   Part c
d------7----------------|
a------7----------------|
e------0----------------|

Pattern is simple 12 bar blues

A * 4, B * 2, A * 2, C * 1, B * 1, A * 1, C * 1.

Chris Turner.

Comments