Cream - Outside Womans Blues Chords & Tabs

 

Outside Womans Blues Chords & Tabs

Cream Chords & Tabs

Version: 1 Type: Tab 0 ratings
1 star 2 stars 3 stars 4 stars 5 stars
comments

Outside Womans Blues Tab

   
                                    Cream
                              Outside Woman Blues

Riff A
-----0--------------
-----0--------------
-----1--------------
-----2-----2--------
-----2-0h2----------
-0-0-0-------0h3h5--
[ Tab from: http://www.guitartabs.cc/tabs/c/cream/outside_womans_blues_tab.html ]
Riff B
---------------------
---------------------
---0-2-4-2-0----0----
-2-----------2----2--
---------------------
---------------------

Riff C
----------2------2------3------3--0--
----------0------0------0------0--0--
----------2------2------2------2--1--
----------1------1------1------1--2--
-0--1-2-2-2--2-2-2--2-2-2--2-2-2--2--
----------------------------------0--

/metal_up_your_ass@2die4.com
Comments