Cream - I Feel Free Chords & Tabs

 

I Feel Free Chords & Tabs

Cream Chords & Tabs

Version: 3 Type: Tab 0 ratings
1 star 2 stars 3 stars 4 stars 5 stars
comments

I Feel Free Tab

   
-------------------------------------------------------------------------------
			    I Feel Free - Cream
-------------------------------------------------------------------------------
Tabbed by: Kyle Landgraf (a.k.a. DetroitRockCity)
Email: klstrider@comcast.net

This is a really easy song to play. Simple intro (one chord), simple verses (two chords),
pre solo (one note). The solo isn't exactly accurate but is close enough.  All in all its
all good.


Tuning: standard

e|---------------------------------------------------------------------------|
B|-8~------------------------------------------------------------------------|
G|-7~-(During the bomp, bomp, bomp part thing, just clap your hands)---------|
D|-6~------------------------------------------------------------------------|
A|-7~------------------------------------------------------------------------|
E|---------------------------------------------------------------------------|
  
verse beginning:
e|---------|
B|---------|
G|--4-7-9--|
D|--4-7-9--|
A|--2-5-7--|
E|---------|
 
  If you listen to the song you automatically what the verse is like.
  
Verse:          
e|-----------------------------------|
B|-----------------------------------|
G|--9-9-9-9-9-9-9-9--7-7-7-7-7-7-7-7-|
D|--9-9-9-9-9-9-9-9--7-7-7-7-7-7-7-7-|
A|--7-7-7-7-7-7-7-7--5-5-5-5-5-5-5-5-|
E|-----------------------------------|

  For the "I could walk down the street" part by just playing the same note like:
e|--12-12-12-12-12-12-12-etc.-|
B|----------------------------|
G|----------------------------|
D|----------------------------|
A|----------------------------|
E|----------------------------|
[ Tab from: http://www.guitartabs.cc/tabs/c/cream/i_feel_free_tab_ver_3.html ]
Solo:
e|------------------------------|--------------------------------------------|
B|----------------------15-12---|--------15----------------------------------|
G|--14----------14p12-----------|---------------12-12-10-12------------------|
D|-------------------12---------|--------------------------------------------|
A|------------------------------|--------------------------------------------|
E|------------------------------|--------------------------------------------|


e|--------------15-17-15-----|-----------------------------------------------|
B|---15b-----17----------17--|-15--------------------------------------------|
G|---------------------------|-----14----14-12-10-12-14b---------------------|
D|---------------------------|-----------------------------------------------|
A|---------------------------|-----------------------------------------------|
E|---------------------------|-----------------------------------------------|


e|--------------------------|------15---------17--15------15-------15---15---|
B|-15-----------------------|-15-17--------17--------15-17--17---17--17------|
G|----14----14--12-10-12-14b|------------------------------------------------|
D|--------------------------|------------------------------------------------|
A|--------------------------|------------------------------------------------|
E|--------------------------|------------------------------------------------|

e|--17--15-------------|
B|---------17-15-etc.--|
G|---------------------|
D|---------------------|
A|---------------------|
E|---------------------|



| /  slide up
| \  slide down
| h  hammer-on
| p  pull-off
| ~  vibrato
| +  harmonic	
| x  Mute note
===============================================================================
Comments