Cream - Crossroads Live Chords & Tabs

 

Crossroads Live Chords & Tabs

Cream Chords & Tabs

Version: 1 Type: Tab 0 ratings
1 star 2 stars 3 stars 4 stars 5 stars
comments

Crossroads Live Tab

   
#----------------------------------PLEASE NOTE---------------------------------#
#This file is the author's own work and represents their interpretation of the #
#song. You may only use this file for private study, scholarship, or research. #
#------------------------------------------------------------------------------#

Crossroads Live

Cream 

by Brian S

  A(let ring)~~~~~
e-------------------------------------------------|
b--------2v-p0-2-0----------2v-p0-2-0~------------|
g-------------------2-----------------------------|
d----(2)--------------2---------------------------|
a-0----------------------0------------------------|
e-------------------------------------------------|
[ Tab from: http://www.guitartabs.cc/tabs/c/cream/crossroads_live_tab.html ]
  A
e-------------------------------------------------|
b--------2v-p0-2-0----------2v-p0-2-0~------------|
g-------------------------------------------------|
d----(2)--------------2---------------------------|
a-0----------------------0------------------------|
e-------------------------------------------------|
   D7
e------------(1)----------------(1)---------------|
b----2----2~-----------2-----2~-------------------|
g----1-1--1~-----------1--1--1~-------------------|
d--0----------------0-----------------------------|
a-------------------------------------------------|
e-------------------------------------------------|

repeat A

lick
e--------------5---------------------------------|
b-----------------5h8------------5-----5---------|
g-----5---------------7p5----5h7---5h7-----------|
d-5h7---7p5----------------7---------------------|
a-----------7------------------------------------|
e------------------------------------------------|

verses are like this :
e-------------------------------------------------|
b-------------------------------------------------|
g--------------------------2--2--4---2-5p2--------|
d---2-2--4--4--h5-4-2------0--0----0-------0------|
a---0-0--0--0----------0--------------------------|
e-------------------------------------------------|

Comments