Cream - Badge Chords & Tabs

 

Badge Chords & Tabs

Cream Chords & Tabs

Version: 5 Type: Tab 0 ratings
1 star 2 stars 3 stars 4 stars 5 stars
comments

Badge Tab

   
                   Cream - Badge
               Words and Music by Eric Clapton and George Harrison

Tab by Ken B. (baronxx@comcast.net)

b = Bend to
r = Release at
h = Hammer on
p = Pull off
/ or \ = Slide down or up
~ = Vibrato
 


Starts at 1:07

With Chorus and Delay

   D      Cmaj7(sus2) G/B   G      D              Cmaj7(sus2) G/B   G     D

e|----------|--------------------|------------------|-------------------|---------|
B|----------|------0------0----0-|-----3------------|-----0-----------0-|-----3---|
G|-----2----|----0--------0------|---2---2-----2----|---0----0---0------|---2---2-|REPEAT X4
D|-0-4------|(0)--------0--------|-0-------0-4------|-0------0-0--------|-0-------|
A|--------3-|---------2----------|----------------3-|--------2----------|---------|
E|----------|----------------3---|------------------|---------------3---|---------|

   D
e|-------|
B|-------|
G|-----2-|
D|-0-4---|  
A|-------|
E|-------|

   D                                    Cmaj7(sus2)             G/B
e|-----------------------------------------------|--------------------------10--------------
B|-13b(15)r(14)--13b(15)r(14)--13b(15)--13b(15)~-|-13b(15)r(13)--10-------------------------
G|-----------------------------------------------|------------------12b(14)----12b(14)r(12)-
D|-----------------------------------------------|------------------------------------------
A|-----------------------------------------------|------------------------------------------
E|-----------------------------------------------|------------------------------------------

                                         Cmaj7(sus2)        G/B              G             D
---------|-----------10-----12b(13)r(12))--10~-|----13b(15)--13b(15)-13b(14)-13b(15)-13b(14)~
---------|---------------10--------------------|-12------------------------------------------
-10b(11)-|----10/11----------------------------|---------------------------------------------
---------|-12----------------------------------|---------------------------------------------
---------|-------------------------------------|---------------------------------------------
---------|-------------------------------------|---------------------------------------------

                                Cmaj7          G/B              G     D 
|-10-----12b(13)r(12)p10-12--10-12~-|-10-----12b(13)r(12)p10h12--10~-|-------10---------14--
|-----10----------------------------|-----10-------------------------|-10h12----12/15~------
|-----------------------------------|--------------------------------|----------------------
|-----------------------------------|--------------------------------|----------------------
|-----------------------------------|--------------------------------|----------------------
|-----------------------------------|--------------------------------|----------------------
[ Tab from: http://www.guitartabs.cc/tabs/c/cream/badge_tab_ver_5.html ]
                 Cmaj7(sus2)     G/B              G       D 
-15b(17)r(15)p13b(14)-|----------15b(16))r(15)p13--15-13-|----15b(17)-15b(17)-15b(17)-15b(17)
----------------------|--15-15~--------------------------|-15--------------------------------
----------------------|----------------------------------|-----------------------------------
----------------------|----------------------------------|-----------------------------------
----------------------|----------------------------------|-----------------------------------
----------------------|----------------------------------|-----------------------------------

         Cmaj7(sus2)                G/B           G       D
-15b(17)-15b(17)r(15)p13-|--------------------17----------|-17b(19)r(17)--------------------|
-------------------------|-15\-----15-177b(19)^^r(17)-15~-|--------------17b(18)r(17)-15----|
-------------------------|-----/16------------------------|------------------------------16-|
-------------------------|--------------------------------|---------------------------------|
-------------------------|--------------------------------|---------------------------------|
-------------------------|--------------------------------|---------------------------------|

Cmaj7(sus2)   G/B           G        D
-----------------------------------|----------------------------------------------------
-15~------15-15~----15-15~--15~----|-17bb(19)---18b(20)-18b(19)-18b(20)-18b(19)-18b(20)-
-------16--------16-------------16-|----------------------------------------------------
-----------------------------------|----------------------------------------------------
-----------------------------------|----------------------------------------------------
-----------------------------------|----------------------------------------------------

Cmaj7(sus2)                        G/B            G                D
---------|--------------------------------------------------------|-----------10--10----
-18b(19)-|-18b(20)r(18)--15h17p15------------13-------------------|-----10h12-----10h12-
---------|------------------------16\--//14-----14-14\12--10------|---------------------
---------|---------------------------------------------------12p9-|-12~-----------------
---------|--------------------------------------------------------|---------------------
---------|--------------------------------------------------------|---------------------

                            Am
-10-----------------------|--------------|
-----------------------10-|--------------|
----13\12p10----10-----10-|--------------|
-------------12----12--10-|--------------|
--------------------------|-12~~~~~~~~~--|
--------------------------|--------------|



Lyrics:


Thinkin' 'bout the times you drove in my car.
Thinkin' that I might have drove you too far.
And I'm thinkin' 'bout the love that you laid on my table. 
I told you not to wander 'round in the dark.
I told you 'bout the swans, that they live in the park.
Then I told you 'bout our kid: now he's married to Mabel. 

Yes, I told you that the light goes up and down.
Don't you notice how the wheel goes 'round?
And you better pick yourself up from the ground
Before they bring the curtain down.
Yes, before they bring the curtain down. 

Ah Ah Ah, yeh yeh yeh
Ah Ah Ah, yeh yeh yeh 

Talkin' 'bout a girl that looks quite like you.
She didn't have the time to wait in the queue.
She cried away her life since she fell off the cradle.
Comments