Cream - Badge Chords & Tabs

 

Badge Chords & Tabs

Cream Chords & Tabs

Version: 3 Type: Tab 0 ratings
1 star 2 stars 3 stars 4 stars 5 stars
comments

Badge Tab

   
 Here is the fameous bridge for The Cream's "Badge".
 Fingerpick it if you want to.
[ Tab from: http://www.guitartabs.cc/tabs/c/cream/badge_tab_ver_3.html ]
          Cmaj7   G/B   G   D            
 e|---------------------------------|
 B|-------------0-----0---0-----3---|
 G|-----2-----0-------0-------2---2-|
 D|-0-4-----0-------0-------0-------|
 A|-------3-------2-----------------|
 E|---------------------3-----------|
           Cmaj7   G/B G   D  
 e|---------------------------------|
 B|--------------0-------0-----3----|
 G|------2-----0---0-0-------2---2--|
 D|--0-4-----0-----0-------0--------|
 A|--------3-------2----------------|
 E|--------------------3------------|

 Tabbed and submitted by Halfdan Baadsvik.
 halfdan@eskobar.nu
Comments