Cream - Badge Chords & Tabs

 

Badge Chords & Tabs

Cream Chords & Tabs

Version: 1 Type: Tab 2 ratings
1 star 2 stars 3 stars 4 stars 5 stars
comments

Badge Tab

   
e-----------------------------
b-----------------------------
g-----------------------------
d----------5--9-7s8-8888------
a---4s5-7--3--7-5s6-6666------
E-0-2s3-5----------------repeat
[ Tab from: http://www.guitartabs.cc/tabs/c/cream/badge_tab.html ]
e---------55555-55555-77777-777-55-33-22-5555-55555-7777-77777-7
b---------55555-77777-99999-999-77-55-44-5555-77777-9999-99999-9
g---------66666-77777-99999-999-77-55-44-6666-77777-9999-99999-7
d---------77777-77777-99999-999-77-55-44-7777-77777-9999-99999-9
a---4s5-6-77777-55555-77777-777-55-33-22-7777-55555-7777-77777-7
E-0-2s3-5-55555-55555-77777-777-55-33-22-5555-55555-7777-77777-7

e---------------
b---------------
g-----3--0--0---
d-2-4---0--0--0-
a------3--2-----
E------------3--
Comments