Crazy Town - Revolving Door Chords & Tabs

 

Revolving Door Chords & Tabs

Crazy Town Chords & Tabs

Version: 3 Type: Tab 0 ratings
1 star 2 stars 3 stars 4 stars 5 stars
comments

Revolving Door Tab

   
Crazytown (The Gift Of Game)

Revolving Door 

This song can also be played in standard tuning by moving every note up a step. 
For example –6- becomes -5-. But this is the tuning Crazytown uses for all of 
their songs, so this is how I figured it out.
----------------
The Song Pattern is:
Intro, Main Riff, Middle Part, Main Riff.

h= Hammer on

Intro
     Am                F
Eb---6-----------------2------------------------------------------------------
Bb---6----6h7----------2------------------------------------------------------
F#---6----6------------3-------------6----------------------------------------
C#---8----6--------4---4----------8-----6-------------------------------------
B#---8-------------4---4-------------------8---------------------------------
Eb---6-------------2---2------------------------------------------------------
[ Tab from: http://www.guitartabs.cc/tabs/c/crazy_town/revolving_door_tab_ver_3.html ]
Main Riff 
          Am                F                                                      
Eb--------6-----------------2-------------------------------------------------
Bb--------6----6h7----------2-------------------------------------------------
F#--------6----6------------2-------------6-----------------------------------
C#--------8----6--------4---4----------8-----6--------------------------------
B#---8----8-------------4---4-------------------8-----------------------------
Eb---6----6-------------2---2-------------------------------------------------

Middle Part 
                                                                   (Play Twice)
Eb-----------4----------------6---------------------7--6---4-----4------------
Bb---------------4----------------6--------------9---------4--------4---------
F#-----------------------------------6---------------------4-----------4------
C#-------6----------------8------------------11----------------6--------------
B#----------------------------------------------------------------------------
Eb---4----------------6-------------------9-----------------------------------

          
          
     Am Am   Am Am   (Play 8 Times)
Eb----6--6----6--6----6-------------------------------------------------------
Bb----6--6----6--6----6-------------------------------------------------------
F#----6--6----6--6----6-------------------------------------------------------
C#----8--8----8--8----6-------------------------------------------------------
B#----8--8----8--8----6-------------------------------------------------------
Eb----6--6----6--8----6-------------------------------------------------------


There we have it the full “Revolving Door” song. Its right but if there are any mistakes
it’s a typo.
Comments