Crazy Town - Revolving Door Chords & Tabs

 

Revolving Door Chords & Tabs

Crazy Town Chords & Tabs

Version: 2 Type: Bass Tab 0 ratings
1 star 2 stars 3 stars 4 stars 5 stars
comments

Revolving Door Bass Tab

This is the whole song 100% perfect!

Intro

(x1)
G--------------------------------------------
D--------------------------------------------
A---0---0--3--3-----------0---0--3--3--------
E-----------------1---0-----------------1----

Verse 1

(x2)
G--------------------------------------------
D--------------------------------------------
A---0------3--3-------5--5---0------3--3-----
E-----------------1------------------------1-

(x2)
G--------------------------------------------
D--------------------------------------------
A---0---0--3--3-----------0---0--3--3--------
E-----------------1---0-----------------1----

Chorus 1
(x2)
G--------------------------------------------
D--------------------------------------------
A---0------3--3-------5--5---0------3--3-----
E-----------------1------------------------1-

Verse 2

(x1)
G--------------------------------------------
D--------------------------------------------
A---0---0--3--3-----------0---0--3--3--------
E-----------------1---0-----------------1----
[ Tab from: http://www.guitartabs.cc/tabs/c/crazy_town/revolving_door_btab_ver_2.html ]
G--------------------------------------------
D--------------------------------------------
A---------------3-----------------------3----
E---3-----5-----------3-----3-----5---------3

(x7)
G--------------------------------------------
D--------------------------------------------
A---0-0---0-0---3--3-------------------------
E--------------------------------------------

G--------------------------------------------
D---1--0-------------------------------------
A---------2--1-------------------------------
E--------------------------------------------

Chorus 2

(x2)
G--------------------------------------------
D--------------------------------------------
A---0---0--3--3-----------0---0--3--3--------
E-----------------1---0-----------------1----

(x2)
G--------------------------------------------
D--------------------------------------------
A---0------3--3-------5--5---0------3--3-----
E-----------------1------------------------1-

(repeat till fade)
G--------------------------------------------
D--------------------------------------------
A---0---0--3--3-----------0---0--3--3--------
E-----------------1---0-----------------1----
Comments