Crazy Town - Revolving Door Chords & Tabs

 

Revolving Door Chords & Tabs

Crazy Town Chords & Tabs

Version: 1 Type: Bass Tab 0 ratings
1 star 2 stars 3 stars 4 stars 5 stars
comments

Revolving Door Bass Tab

   
                            Crazy Town
                          Revolving Door
                            Bass Tab
                         Standard Tuning
              Transcribed and tabbed by: Jordy Smith

              Verse/Chorus
G-------------------------------------------
D--------------3-----3---3------------------
A------3------------------------3-----------
E-5-55---5-1-1---1-1---1---5-55---5-1-------

[ Tab from: http://www.guitartabs.cc/tabs/c/crazy_town/revolving_door_btab.html ]
                         Other Part 1
G------------------------------------------------------------------
D-------7-----7-------9-----9-------10-----10----------12-------12-
A------------------------------------------------------------------
E-5-5-5---5-5---7-7-7---7-7---8-8-8----8-8----10-10-10----10-10----


                    Other Part 2
G-------------------------------------------------
D-------------------------------------------------
A-------------------------------------------------
E-55-55-33-5-3-55-55-33-5-3-55-55-33-5-3-55-55-3\-


Other Part 3
G---------
D---------
A-7-5-3-2-
E---------

Some of the parts aren't exactly right but I modified them so they 
sound better than the original. If you have any questions, comments,
or corrections, e-mail me at: bass_kid_2000@yahoo.com
Comments