Crazy Town - Drowning Chords & Tabs

 

Drowning Chords & Tabs

Crazy Town Chords & Tabs

Version: 7 Type: Tab 0 ratings
1 star 2 stars 3 stars 4 stars 5 stars
comments

Drowning Tab

   
Crazy Town - Drowning

Tuning = C# F# B E G# C#

Tabbed by djmonsi - djmonsi@yahoo.de

* = Palm Muted

Intro/Chorus (Heavey Distortion)
--------------------------------|--------------------------------|
--------------------------------|--------------------------------|
2---2---2-2---------------------|7---7---777---2---2-2-----2-2---|
2---2---2-2---2---2-2-----2-2---|5---5---555---2---2-2-----2-2---|
0---0---0-0---2---2-2-----2-2---|3---3---333---0---0-0-----0-0---|
--------------0---0-0-----0-0---|--------------------------------|
                                         **

Melody on Chorus (Heavey Distortion)
12------------------------------|---------------------------------|
-------12--10-------------------|8-10-----8-10-12-10--------------|
--------------------------------|---------------------------------|
--------------------------------|---------------------------------|
--------------------------------|---------------------------------|
--------------------------------|---------------------------------|
                                         
[ Tab from: http://www.guitartabs.cc/tabs/c/crazy_town/drowning_tab_ver_7.html ]
Verse (with Delay)
--3-2----------|----6-----------|--3-2----------|--------5---3---|
5--------------|-67---76--------|5--------------|3---------------|
---------------|----------------|---------------|----------------|
---------------|----------------|---------------|----------------|
---------------|----------------|---------------|----------------|
---------------|----------------|---------------|----------------|



Interlude (Heavey Distortion)
----7-----5-----9-----7-----5-7-|----7-----5---------------------|
--------------------------------|----------------8-----7---------|
--------------------------------|----------------------------7-9-|
--------------------------------|--------------------------------|
7-7---7-7---7-7---7-7---7-7-----|7-7---7-7---7-7---7-7---7-7-----|
--------------------------------|--------------------------------|


----7-----5-----9-----7-----5-7-|------------7-------------------|
--------------------------------|----8-----7-------8---7---------|
--------------------------------|--------------------------------|
--------------------------------|--------------9-----------------|
7-7---7-7---7-7---7-7---7-7-----|7777--7777------77--77----------|
--------------------------------|--------------------------------|
                                                           AM I DROWNING...


Intro/Chorus x1
Intro/Chorus + Melody on Chorus x1
Verse x2
Intro/Chorus + Melody on Chorus x3
Verse x3
Intro/Chorus + Melody on Chorus x3
Interlude x1
Intro/Chorus + Melody on Chorus x3
Comments