Crazy Elephant - Gimme Gimme Good Lovin Chords & Tabs

 

Gimme Gimme Good Lovin Chords & Tabs

Crazy Elephant Chords & Tabs

Version: 1 Type: Bass Tab 0 ratings
1 star 2 stars 3 stars 4 stars 5 stars
comments

Gimme Gimme Good Lovin Bass Tab

#-----------------------------PLEASE NOTE-------------------------------------#
#This OLGA file is the author's own work and represents their interpretation  #
#of the song. You may only use this file for private study, scholarship, or   #
#research. Remember to view this file in Courier, or some other monospaced    #
#font. See http://www.olga.net/faq/ for more information.                     #
#-----------------------------------------------------------------------------#

Date: Thu, 24 Aug 2000 09:34:07 -0400
From: Diamhed@aol.com
Subject: c/crazy_elephant/gimme_gimme_good_lovin.btab


                     "Gimme Gimme Good Lovin'"
                          Crazy  Elephant

Intro:

        v   v   v   v   
        ----------------|
        ----------------|  <-4x
        0-0-0-0-0-0-0-0-|
        ----------------|

Verses 1 & 2:

        v   v   v   v   
        ----------------|
        ----------------|  <-8x
        0-0-0-0-0-0-0-0-|
        ----------------|

Chorus:
[ Tab from: http://www.guitartabs.cc/tabs/c/crazy_elephant/gimme_gimme_good_lovin_btab.html ]
        v   v   v   v    v   v   v   v    v   v   v   v    v   v   v   v   
        0-0-0-0-0-------|----------------|----------------|----------------|
        ----------4-2-0-|0-0-0-0-0-0-0-0-|----------------|----------------|
        ----------------|----------------|0-0-0-0-0-0-0-0-|0-0-0-0-0-0-0-0-|
        ----------------|----------------|----------------|----------------|

        v   v   v   v    v   v   v   v    v   v   v   v    v   v   v   v   
        0-0-0-0-0-------|----------------|----------------|----------------|
        ----------4-2-0-|0-0-0-0-0-0-0-0-|----------------|----------------|
        ----------------|----------------|0-0-0-0-0-0-0-0-|0-0-0-0-0-0-0-0-|
        ----------------|----------------|----------------|----------------|
         ________________________________   __________________
        /1.                              | /2. to instrumental|
        v   v   v   v    v   v   v   v   
        ----------------|----------------|
        ----------------|----------------|
        0-0-0-0-0-0-0-0-|0-0-0-0-0-0-0-0-|
        ----------------|----------------|

Instrumental:

        organ solo:

        v   v   v   v   
        ----------------|
        ----------------|  <-8x
        0-0-0-0-0-0-0-0-|
        ----------------|

        guitar solo:

        v   v   v   v   
        ----------------|
        ----------------|  <-8x
        0-0-0-0-0-0-0-0-|
        ----------------|

[Repeat chorus 2x and fade]

Questions? Comments? E-mail diamhed@aol.com
Comments