Crass - Punk Is Dead Chords & Tabs

 

Punk Is Dead Chords & Tabs

Crass Chords & Tabs

Version: 1 Type: Tab 0 ratings
1 star 2 stars 3 stars 4 stars 5 stars
comments

Punk Is Dead Tab

----------------------------------------------------------------------------
			     Punk is DEAD - Crass
----------------------------------------------------------------------------
Tabbed by: bucky_2300 aka Duncan
Email:

Tuning: Standard
[ Tab from: http://www.guitartabs.cc/tabs/c/crass/punk_is_dead_tab.html ]
Verse
Repeat over and over for verse. 
e|-------------------------------------------------------------------------|
B|-------------------------------------------------------------------------|
G|----9-9-7-6-4-2----------------------------------------------------------|
D|----9-9-7-6-4-2----------------------------------------------------------|
A|----7-7-5-4-2-0----------------------------------------------------------|
E|-------------------------------------------------------------------------|
Chorus
e|-------------------------------------------------------------------------|
B|----------------8-8-10-10-8-8-10-10--------------------------------------|
G|---7-7-7--9-9---7-7-9--9--7-7-9--9--9-9-9-7-7----------------------------|
D|---7-7-7--9-9---5-5-7--7--5-5-7--7--9-9-9-7-7----------------------------|
A|---5-5-5--7-7-----------------------7-7-7-5-5----------------------------|
E|-------------------------------------------------------------------------|

Pretty simple.
Comments