Crass - Do They Owe Us A Living Chords & Tabs

 

Do They Owe Us A Living Chords & Tabs

Crass Chords & Tabs

Version: 1 Type: Bass Tab 0 ratings
1 star 2 stars 3 stars 4 stars 5 stars
comments

Do They Owe Us A Living Bass Tab

   
CRASS
SONG PLAYED QUITE FAST
STANDARD TUNING (E,A,D,G)
FROM THE ALBUM FEEDING OF THE 5000.

VERSE. (PLAYED TILL CHORUS)
G----------|----------|---------45--|----------|-----------|-----------|
D-444444---|-444444---|-44444-45--5-|-444444---|-44444-----|-44444-----|
A-------34-|--------3-|-------------|--------3-|-------3-4-|-------3-4-|
E----------|----------|-------------|----------|-----------|-----------|

G-----------45--|---------|-----------|
D-4444444-45--5-|-44444---|-444444444-|
A---------------|-------3-|-----------|
E---------------|---------|-----------|

[ Tab from: http://www.guitartabs.cc/tabs/c/crass/do_they_owe_us_a_living_btab.html ]
CHORUS ONLY PLAYED FOR FIRST CHORUS. (x1)
G---6--4----------6--4------------6-----|----------|
D--------222-111-------222-111----------|----2/4---|
A-44-22---------44-22-----------44-22---|----------|
E---------------------------------------|----------|

CHORUS PLAYED THROUGH THE REST OF THE SONG.
G---------------------0-2-222/666--6--4---------6--4--------------6--------|
D--------------0-2-222-----------------222-111------222-111----------------|
A---------4444-------------------44-22--------44-22-------------44-22----0-|
E--------------------------------------------------------------------------|

END ON
G----|
D----|
A-3--|
E----|


IF YOU PLAY THIS TO THE ACTUAL SONG IT MAKES A WHOLE LOT EASIER.FUN SONG!
Comments