Crass - Contaminational Power Chords & Tabs

 

Contaminational Power Chords & Tabs

Crass Chords & Tabs

Version: 2 Type: Bass Tab 0 ratings
1 star 2 stars 3 stars 4 stars 5 stars
comments

Contaminational Power Bass Tab

Song:Contaminational Power
Band:Crass
Album:Stations of The Crass
tabbed by: James Kiger (plaid110@aol.com)

This is the first tab i've ever made so forgive me if its wrong.

>=strum

Intro and Verse
G:---------------------------------------------------------------
D:------------10-------------------------------------------------
A:---12-10-12----------------------------------------------------
E:---------------10-12-------------------------------------------
[ Tab from: http://www.guitartabs.cc/tabs/c/crass/contaminational_power_btab_ver_2.html ]
Chorus or something:
"Well the Dust is settling ticking in your brain..."
G:---------------------------------------------------------------
D:---------------------------------------------------------------
A:-0----0-----0------0----0-----0-----0----0---------------------
E:---------------------------------------------------------------

Other Part:
"Contamination, Contamination, Contamination..."
G:---------------------------------------------------------------
D:---------------------------------------------------------------
A:-12>-----------------------------------------------------------
E:-------10>----12>----------------------------------------------

peace

Authority is Oppresion. 



Comments