Crass - Banned From The Roxy Chords & Tabs

 

Banned From The Roxy Chords & Tabs

Crass Chords & Tabs

Version: 1 Type: Bass Tab

Banned From The Roxy Bass Tab

BANNED FROM THE ROXY by Crass. Album : The Feeding Of The 5000 (1978)
Said they only wanted well behaved boys.
:
# chorus # X4 0.47
G-------------------------------------------|
D--------7--------9---------10---------9----|
A-------------------------------------------|
E---5--------7---------8----------7---------|
:
# verse1 # X5
G---------------------------|
D-----------7---------------|
A---------------------------|
E----5--5----------0---2----|
:
# verse2 # 1.26
G-------------------|-----------X5-----------|-------------|
D--------------7----|-------------------7----|-------------|
A-------------------|------------------------|-------------|
E----0--5--5--------|----0---2---5--5--------|----0---2----|
:
Then play chorusX6, verse1X4
:
# end # X2
G----------------------------|
D----------------------------|
A----------------------------|
E---5--5--5--5--5--5--5--5---|
:
Do they think guitars and microphones are just fucking toys?
jackhynes :AT: gmail :DOT: com 09.06.04
http://www.geocities.com/jackstabs
[ Tab from: http://www.guitartabs.cc/tabs/c/crass/banned_from_the_roxy_btab.html ]