Crash Test Dummies - I Think Ill Disappear Now Chords & Tabs

 

I Think Ill Disappear Now Chords & Tabs

Crash Test Dummies Chords & Tabs

Version: 1 Type: Bass Tab 0 ratings
1 star 2 stars 3 stars 4 stars 5 stars
comments

I Think Ill Disappear Now Bass Tab

This isn't 100% perfect, but then again it's nice to be able to go with the basics and 
build on it yourself, make it your own.  Anywho, any changes/suggestions send them to 
with Bass Tab as the subject.

Crash Test Dummies - I Think I'll Disappear Now

Intro
G-----0--2--3--3--3--2--0---------------------------------------------------------------------------------|
D--3----------------------------------3-----3--------2--3-------------------------------------------------|
A-----------------------------3--10------------1--1-----------------------0----5--5--3--3-----------------|
E------------------------------------------1-----------------1---1--1--3----------------------------------|

Running into you...
G---------------------------------------------------------------------------------------------------------|
D--3--------------------------2--3-----------------------------------------------3--3-------------------2-|
A-------------------0--1--1-----------------------0--5--5--3--3--1--1--3--3--------5--5--1--1--3----------|
E------1--1--1--3-------------------1--1--1--3------------------------------------------------------------|

G-----------------------------------------------------------3--2--0---------5--5--------------------------|
D--3----------------------------------------------------------------------5-----------7--5----------------|
A-------------------0--5--5--3--3--------3--3-----3--1------------3------------3--------------------------|
E------1--1--1--3------------------3--3--------3----------------------------------------------------------|

You can just agree...
G---------------------------------------------------------------------------------------------------------|
D--3-------------------3----------------------------------------------3--3-------------------2------------|
A---------0--0--1--1------------------0--5--5--3--3--1--1--3--3--------5--5--1--1--3----------------------|
E------1------------------1--1--1--3----------------------------------------------------------------------|

G---------------------------------------------------------------------------------------------------------|
D--3------------------------------------------------------------------------------------------------------|
A-------------------0--5--5--3--3-------------------------------------------------------------------------|
E------1--1--1--3-------------------3--3------------------------------------------------------------------|

I think I'll disappear now...
G--------------------------------------------------2--2--0------------------------------------5--5----------|
D-------------------3--3------------------------------------3------------------------------5-----------7--5-|
A--1--1--3--3-------------------0--1--1--3--3---------------5--5-----5--1--1--1--3------------3-------------|
E----------------1--------1--3----------------------------------------5-------------------------------------|

I'll buy a fast car...
G---------------------------------------------------------------------------------------------------------|
D--3-------------------3----------------------------------------------3--3-------------------2------------|
A---------0--0--1--1------------------0--5--5--3--3--1--1--3--3--------5--5--1--1--3----------------------|
E------1------------------1--1--1--3----------------------------------------------------------------------|
[ Tab from: http://www.guitartabs.cc/tabs/c/crash_test_dummies/i_think_ill_disappear_now_btab.html ]
G---------------------------------------------5--5-----5--------------------------------------------------|
D--3--------------------------------------5---------------------------------------------------------------|
A-------------------0--5--5--3--3----3------------3-------------------------------------------------------|
E------1--1--1--3------------------3----------------------------------------------------------------------|

I think I'll disappear now...
G--------------------------------------------------2--2--0------------------------------------5--5-------------5-|
D-------------------3--3------------------------------------3------------------------------5---------5------5----|
A--1--1--3--3-------------------0--1--1--3--3---------------5--5-----5--1--1--1--3-----------------3-------------|
E----------------1--------1--3----------------------------------------5------------------------------------------|

Aren't you gonna miss me...
G--0--0-----3--5--3--2--0------------------------------------------------------------------------------------|
D-----------------------------3-----3--2--0--1--1---------3--3-----------------------------3-----3--0--------|
A---------3-----------------------3----------------------------------------0--1--1--3--3------------------3--|
E------------------------------------------------------1--1---------1--3-------------------1-----1-----------|


G--------------------------2--3--2--0------------------------------------5-----7--5--------------------------|
D-------------------0--2----------------3--2--0--0-------------------5-----5--------7------------------------|
A--1--1--3--3--3------------------------------------0--3--1--1--3--------------------------------------------|
E------------------------------------------------------------------------------------------------------------|

You can bet that I'll forget...
G------------------------------------------------------------------------------------------------------------|
D--3-----------------------------3------2--2--3--2-----------------------------3--2-------------------5------|
A-------------------0--1--1--------------------------5--5--3--3--1--1--3--3--------5--5--1--1--3-------------|
E------1--1--1--3------------1-----1-------------------------------------------------------------------------|

G------------------------------------0-------------------5------------5--------------------------------------|
D--3--------------------------------------------------5-----5-----5------------------------------------------|
A-------------------0--5--5--3--3-----0--1--2--3------------3------------------------------------------------|
E------1--1--1--3--------------------------------------------------------------------------------------------|

I think I'll disappear now...
G--------------------------------------------------2--3--2--0-------------------------------------5--5-------------5-|
D-------------------3--3----------------------------------------3------------------------------5---------5------5----|
A--1--1--3--3-------------------0--1--1--3--3-------------------5--5-----5--1--1--1--3-----------------3-------------|
E----------------1--------1--3--------------------------------------------5------------------------------------------|

Aren't you gonna miss me...
G--0--0-----3--2--0-----------------------------------------------0--0---------------3--5--7--5--2--0------------------|
D-----------------------3--3-----3--2--0--1--1---------3--3------------------5--------------------------3--------------|
A---------3--------------------3------------------------------------------3--3-----1--------------------------1--5--5--|
E---------------------------------------------------1--1---------1-----------------------------------------------------|

G--------------------------------------------------------------------------------------------------------------------|
D---------------3--3-----------------------------------------------------3-------------------------------------------|
A--1--1----------------------0--5--5--1--1---------3-----5--5--3-----------------------------------------------------|
E---------1--1--------1--3--------------------1--1-----1------------1----1--8----------------------------------------|
Comments