Cranberries - Zombie Chords & Tabs

 

Zombie Chords & Tabs

Cranberries Chords & Tabs

Version: 6 Type: Tab 0 ratings
1 star 2 stars 3 stars 4 stars 5 stars
comments

Zombie Tab

   
Intro:
------

Guitar I (Clean):

Em Cmaj7
e -0---0---0---0-0---0-0-----0-0---|-0---0---0---0-0---0-0---0-0-0---|
B -0---0---0---0-0---0-0-----0-0---|-0---0---0---0-0---0-0---0-0-0-0-|
G -0---0---0---0-0---0-0-----0-0-0-|-0---0---0---0-0---0-0---0-0-0-0-|
D -2---2---2---2-2---2-2-----2-2-0-|-2---2---2---2-2---2-2---2-2-2-0-|
A -2-------2---2-------2-----2-2-0-|-3-------3-----------3-----------|
E -0-------0---0-------0-----0-0---|---------------------------------|

G6 D6sus
e -0---0---0---0-0---0-0-----0-0---|-0---0---0---0-0---0-0---0-0-0-0-|
B -0---0---0---0-0---0-0-----0-0---|-0---0---0---0-0---0-0---0-0-0-0-|
G -0---0---0---0-0---0-0-----0-0-0-|-0---0---0---0-0---0-0---0-0-0-0-|
D -0---0---0---0-0---0-0-----0-0-0-|-0---0---0---0-0---0-0---0-0-0-0-|
A -2-------2-----------2-------2-0-|-0-------0-----------0---0-0-0-0-|
E -3-------3-----------3-------3---|-2-------2-----------2---2-2-2-2-|

Guitar II (Dist.):

Em Cmaj7
e ---------------------------------|---------------------------------|
B ---------------------------------|---------------------------------|
G -9---9---9---9---9---9---9---9---|-5---5---5---5---5---5---5---5---|
D -9---9---9---9---9---9---9---9---|-5---5---5---5---5---5---5---5---|
A -7---7---7---7---7---7---7---7---|-3---3---3---3---3---3---3---3---|
E -0---0---0---0---0---0---0---0---|---------------------------------|

G6 D6sus
e ---------------------------------|---------------------------------|
B ---------------------------------|---------------------------------|
G -0---0---0---0---0---0---0---0---|-0---0---0---0---0---0---0---0---|
D -0---0---0---0---0---0---0---0---|-0---0---0---0---0---0---0---0---|
A -2---2---2---2---2---2---2---2---|-0---0---0---0---0---0---0---0---|
E -3---3---3---3---3---3---3---3---|-2---2---2---2---2---2---2---2---|

Repeat above Guitar II part with the following Guitar I part:

Em C
e ---------------------------------|---------------------------------|
B -----0-------0-------0-----------|---------------------------------|
G ---------0---------------0-------|---------0---------------0-------|
D -2---------------2---------------|-----5-------5-------5-----------|
A ---------------------------------|-3---------------3---------------|
E ---------------------------------|---------------------------------|

G Dsus
e ---------------------------------|-0---------------------------0-0-|
B ---------------------------------|-----3-----------------------0-0-|
G ---------------------------------|---------0-------------------0-0-|
D ---------0---------------0-------|-------------0---------------0-0-|
A -----2-------2-------2-------2---|-----------------0-------0-------|
E -3---------------3---------------|---------------------2-----------|

Continue, Guitar I (top) and Guitar II (bottom):
----------------------------------------------------
Em C
e -0-----------------------0-------|-------------------------0-------|
B -0-----------------------0-------|-------------------------0-------|
G -0-----------------------0-------|-------------------------0-------|
D -2-------------------------------|-2---2---2---2---2---2-----------|
A -2---2---2---2---2---2-----------|-3---3---3---3---3---3-----------|
E -0---0---0---0---0---0-----------|---------------------------------|

Em
e ---------------------------------|---------------------------------|
B ---------------------------------|---------------------------------|
G -9-------------------------------|---------------------------------|
D -9-------------------------------|---------------------------------|
A -7-------------------------------|---------------------------------|
E -0-------------------------------|---------------------------------|
[ Tab from: http://www.guitartabs.cc/tabs/c/cranberries/zombie_tab_ver_6.html ]
Instrumental Solo - Guitar I (top) and Guitar II (bottom):
----------------------------------------------------------

G Dsus
e ---------------------------------|-0---------------------------0-0-|
B ---------------------------------|-----3-----------------------0-0-|
G ---------------------------------|---------0-------------------0-0-|
D ---------0---------------0-------|-------------0---------------0-0-|
A -----2-------2-------2-------2---|-----------------0-------0-------|
E -3---------------3---------------|---------------------2-----------|

e -7--h8--p7---5--h7-------3--h5---|p3---2--h3--p2-------------------|---|
B ---------------------------------|-----------------3-------3-------|-0-|
G ---------------------------------|---------------------------------|---|
D ---------------------------------|---------------------------------|---|
A ---------------------------------|---------------------------------|---|
E ---------------------------------|---------------------------------|---|


At the Verses, repeat the chords: Em, C, G, & Dsus until the "In your head..." part,
then play E5, C5, G Dsus chords and repeat as needed.

Guitar Solo:
------------

e -7/8----5/7--------------|-7/8----5/7---7---7---7--|-7/8-----5/7---7---7---7--|
B -------------------------|-------------------------|--------------------------|
G -------------------------|-------------------------|--------------------------|
D -------------------------|-------------------------|--------------------------|
A -------------------------|-------------------------|--------------------------|
E -------------------------|-------------------------|--------------------------|


e -7/8-----5/7--7-7-7-7-7-7|-7/8-----5/7--7---7---7-7|-7/8-----5/7--7---7---7-7|
B --------------7-7-7-7-7-7|-7/8-----5/7--7---7---7-7|-7/8-----5/7--7---7---7-7|
G -------------------------|-------------------------|-------------------------|
D -------------------------|-------------------------|-------------------------|
A -------------------------|-------------------------|-------------------------|
E -------------------------|-------------------------|-------------------------|


e -7/8-----5/7-------------|-7\5-----5------7-----10-|-10/12--12\10-10---10--10|
B -7/8-----5/7-------------|-7\5-----5------7-----10-|-10/12--12\10-10---10--10|
G -------------------------|-------------------------|-------------------------|
D -------------------------|-------------------------|-------------------------|
A -------------------------|-------------------------|-------------------------|
E -------------------------|-------------------------|-------------------------|


e -10/12--12\10--10---10-10|-10\7----7---------------|-7\5----5/7----7------7-7|
B -10/12--12\10--10---10-10|-10\7----7---------------|-7\5----5/7----7------7-7|
G -------------------------|-------------------------|-------------------------|
D -------------------------|-------------------------|-------------------------|
A -------------------------|-------------------------|-------------------------|
E -------------------------|-------------------------|-------------------------|


e -7/8-----5/7----7-----7-7|-7/8-----5/7----7-----7-7|-7/8----5/7--------------|
B -7/8-----5/7----7-----7-7|-7/8-----5/7----7-----7-7|-7/8----5/7--------------|
G -------------------------|-------------------------|-------------------------|
D -------------------------|-------------------------|-------------------------|
A -------------------------|-------------------------|-------------------------|
E -------------------------|-------------------------|-------------------------|


e -7\5------5------------5-|-7-----------------------|
B -7\5------5------------5-|-7-----------------------|
G -------------------------|-9-----------------------|
D -------------------------|-9-----------------------|
A -------------------------|-7-----------------------|
E -------------------------|-0-----------------------|
Comments