Cranberries - Zombie Chords & Tabs

 

Zombie Chords & Tabs

Cranberries Chords & Tabs

Version: 3 Type: Tab 2 ratings
1 star 2 stars 3 stars 4 stars 5 stars
comments

Zombie Tab

#----------------------------------PLEASE NOTE---------------------------------#
#This file is the author's own work and represents their interpretation of the #
#song. You may only use this file for private study, scholarship, or research. #
#------------------------------------------------------------------------------##

"Zombie"
by The Cranberries

 Gt1:Intro clean 2x      
E||--0-0-0-0-0-0-0--|--0-0-0-0-0-0-0--|-----------------|----------------|
B||--0-0-0-0-0-0-0--|--0-0-0-0-0-0-0--|--0-0-0-0-0-0-0--|--0-0-0-0-0-0-0-|
G||--0-0-0-0-0-0-0--|--0-0-0-0-0-0-0--|--0-0-0-0-0-0-0--|--0-0-0-0-0-0-0-|
D||--2-2-2-2-2-2-2--|--2-2-2-2-2-2-2--|--0-0-0-0-0-0-0--|--0-0-0-0-0-0-0-|
A||--2-2-2-2-2-2-2--|--3-3-3-3-3-3-3--|--2-2-2-2-2-2-2--|--0-0-0-0-0-0-0-|
E||-----------------|-----------------|--3-3-3-3-3-3-3--|--2-2-2-2-2-2-2-|

Drums and second guitar begins
 Gt2: Distortion 2x  (Chorus) 0:13                                           End
E||-----------------|-----------------|-----------------|-----------------|-------|
B||-----------------|-----------------|-----------------|-----------------|-------|
G||--9-9-9-9-9-9-9--|--5-5-5-5-5-5-5--|-----------------|-----------------|--9~~--|
D||--9-9-9-9-9-9-9--|--5-5-5-5-5-5-5--|--5-5-5-5-5-5-5--|--0-0-0-0-0-0-0--|--9~~--|
A||--7-7-7-7-7-7-7--|--3-3-3-3-3-3-3--|--5-5-5-5-5-5-5--|--0-0-0-0-0-0-0--|--7~~--|
E||-----------------|-----------------|--3-3-3-3-3-3-3--|--2-2-2-2-2-2-2--|-------|

 Gt1 under distortion  0:25     
E||-------------------|-------------------|-------------------|--0-------------|--0--|
B||----0---0---0---0--|-------------------|-------------------|----3-----------|--0--|
G||------0-------0----|------0-------0----|------0-------0----|------0---------|--0--|
D||--2-------2--------|----5---5---5---5--|----0---0---0---0--|--------0-------|--2--|
A||-------------------|--3-------3--------|-------------------|-------------0--|--2--|
E||-------------------|-------------------|--3-------3--------|-----------2----|--0--|

 Gt1   0:37
E||--------------0--|--------------0--|-----------------|--0-------------|
B||--------------0--|--------------0--|--------------0--|----3-----------|
G||--------------0--|--------------0--|--------------0--|------0---------|
D||--2-2-2-2-2-2-2--|--2-2-2-2-2-2-2--|--------------0--|--------0-------|
A||--2-2-2-2-2-2-2--|--3-3-3-3-3-3-3--|--2-2-2-2-2-2-2--|-------------0--|
E||-----------------|-----------------|--3-3-3-3-3-3-3--|-----------2----|

 Gt2      0:42                                                               
E||--7h8--5h7--3h5--2h3p2-----------|
B||------------------------3--3--0--|
G||---------------------------------|
D||---------------------------------|
A||---------------------------------|
E||---------------------------------|

 Gt1  Verse 0.48
E||--------------0--|--------------0--|-----------------|--0-------------(0)--|
B||--------------0--|--------------0--|--------------0--|----3-----------(0)--|
G||--------------0--|--------------0--|--------------0--|------0---------(0)--|
D||--2-2-2-2-2-2-2--|--2-2-2-2-2-2-2--|--------------0--|--------0-------(0)--|
A||--2-2-2-2-2-2-2--|--3-3-3-3-3-3-3--|--2-2-2-2-2-2-2--|-------------0--(0)--|
E||-----------------|-----------------|--3-3-3-3-3-3-3--|-----------2---------|
[ Tab from: http://www.guitartabs.cc/tabs/c/cranberries/zombie_tab_ver_3.html ]
 Gt2 Chorus 1:35 
E||-----------------|-----------------|-----------------|-----------------|-------|
B||-----------------|-----------------|-----------------|-----------------|-------|
G||--9-9-9-9-9-9-9--|--5-5-5-5-5-5-5--|-----------------|-----------------|--9~~--|
D||--9-9-9-9-9-9-9--|--5-5-5-5-5-5-5--|--5-5-5-5-5-5-5--|--0-0-0-0-0-0-0--|--9~~--|
A||--7-7-7-7-7-7-7--|--3-3-3-3-3-3-3--|--5-5-5-5-5-5-5--|--0-0-0-0-0-0-0--|--7~~--|
E||-----------------|-----------------|--3-3-3-3-3-3-3--|--2-2-2-2-2-2-2--|-------|

 Gt1 Verse 2:10
E||--------------0--|--------------0--|-----------------|--0-------------(0)--|
B||--------------0--|--------------0--|--------------0--|----3-----------(0)--|
G||--------------0--|--------------0--|--------------0--|------0---------(0)--|
D||--2-2-2-2-2-2-2--|--2-2-2-2-2-2-2--|--------------0--|--------0-------(0)--|
A||--2-2-2-2-2-2-2--|--3-3-3-3-3-3-3--|--2-2-2-2-2-2-2--|-------------0--(0)--|
E||-----------------|-----------------|--3-3-3-3-3-3-3--|-----------2---------|

 Gt2 2:15
E||--7h8--5h7--3h5--2h3p2-----------|
B||------------------------3--3--0--|
G||---------------------------------|
D||---------------------------------|
A||---------------------------------|
E||---------------------------------|

 Gt2 Chorus 3:06                                                             
E||-----------------|-----------------|-----------------|-----------------|-------|
B||-----------------|-----------------|-----------------|-----------------|-------|
G||--9-9-9-9-9-9-9--|--5-5-5-5-5-5-5--|-----------------|-----------------|--9~~--|
D||--9-9-9-9-9-9-9--|--5-5-5-5-5-5-5--|--5-5-5-5-5-5-5--|--0-0-0-0-0-0-0--|--9~~--|
A||--7-7-7-7-7-7-7--|--3-3-3-3-3-3-3--|--5-5-5-5-5-5-5--|--0-0-0-0-0-0-0--|--7~~--|
E||-----------------|-----------------|--3-3-3-3-3-3-3--|--2-2-2-2-2-2-2--|-------|

 Both Guitar silence 3:52 Bas 

 Gt2 Solo 4:01
E||-(7)(7)(7)(7)--|--7/8-5/7-7-7-7-7--|--7/8-5/7-7-7-7-7--|-7/8-5/7-7-7-7-7--|
B||---------------|-------------------|-------------------|------------------|
G||---------------|-------------------|-------------------|------------------|
D||---------------|-------------------|-------------------|------------------|
A||---------------|-------------------|-------------------|------------------|
E||---------------|-------------------|-------------------|------------------|

E||--7/8-5/7-7-7-7-7--|--7/8-5/7-7-7-7-7--|--7/8-5/7-7-7-7-7-|--7/8-5/7-5--------|
B||--------------7-7--|--7/8-5/7-7-7-7-7--|--7/8-5/7-7-7-7-7-|--7/8-5/7-5--------|
G||-------------------|-------------------|------------------|-------------------|
D||-------------------|-------------------|------------------|-------------------|
A||-------------------|-------------------|------------------|-------------------|
E||-------------------|-------------------|------------------|-------------------|

E||--7h5-5-7/10/12-12-12-10/12-12-12-12-10/7-7/5-5------|
B||--7h5-5-7/10/12-12-12-10/12-12-12-12-10/7-7/5-5------|
G||-----------------------------------------------------|
D||-----------------------------------------------------|
A||-----------------------------------------------------|
E||-----------------------------------------------------|

E||--7/8-5/7-7-7-7-7--|--7/8-5/7-7-7-7-7--|--7/5-5-----------|
B||--7/8-5/7-7-7-7-7--|--7/8-5/7-7-7-7-7--|--7/5-5-----------|
G||-------------------|-------------------|------------------|
D||-------------------|-------------------|------------------|
A||-------------------|-------------------|------------------|
E||-------------------|-------------------|------------------|

 Song ends with
E||--7--|
B||--7--|
G||--8--|
D||--9--|
A||--9--|
E||--7--|
Comments