Cranberries - Zombie Chords & Tabs

 

Zombie Chords & Tabs

Cranberries Chords & Tabs

Version: 2 Type: Bass Tab 0 ratings
1 star 2 stars 3 stars 4 stars 5 stars
comments

Zombie Bass Tab

   
Song:   Zombie
Artist: The Cranberries
Tuning: G D A E
The Original was by someone from the mail address of:
SHOULDED@TEN-NASH.TEN.K12.TN.US

This Updated Correction by
Dave Cork (reaperman9@hotmail.com)

Intro:
(Slide down from 12th fret on E string into the chorus riff)
G:|-----------------|
D:|-----------------|
A:|-----------------|
E:|------------12\--|
    1 & 2 & 3 & 4 &
[ Tab from: http://www.guitartabs.cc/tabs/c/cranberries/zombie_btab_ver_2.html ]
Chorus Riff:
(Play this part with lots of energy)
G:|-----------------|-----------------|-----------------|-----------------|
D:|-----------------|-----------------|-----------------|-----------------|
A:|-----------------|-3-3-3-3-3-3-5-3-|-----------------|-----------------|
E:|-0-0-0-0-0-0-3-0-|-----------------|-3-3-3-3-3-3-5-3-|-2-2-2-2-2-3-2-3-|
    1 & 2 & 3 & 4 &   1 & 2 & 3 & 4 &   1 & 2 & 3 & 4 &   1 & 2 & 3 & 4 &

Verse Riff:
(Play with less energy, you'll notice how the end of each bar has changed 
except the last)
G:|-----------------|-----------------|-----------------|-----------------|
D:|-----------------|-----------------|-----------------|-----------------|
A:|-----------------|-3-3-3-3-3-3-3-3-|-----------------|-----------------|
E:|-0-0-0-0-0-0-0-0-|-----------------|-3-3-3-3-3-3-3-3-|-2-2-2-2-2-3-2-3-|
    1 & 2 & 3 & 4 &   1 & 2 & 3 & 4 &   1 & 2 & 3 & 4 &   1 & 2 & 3 & 4 &

Outro:
(This is the part where the bass Solo's at the end of the song
It's repeated 4 times After the 4th time, end on an open E.)
G:|-----------------|-----------------|
D:|-----------------|-----------------|
A:|-----------------|-3-3-3-335-3-0---|
E:|-0-0-0-00000-3-0-|---------------3-|
    1 & 2 & 3 & 4 &   1 & 2 & 3 & 4 &

Comments