Cranberries - Zombie Chords & Tabs

 

Zombie Chords & Tabs

Cranberries Chords & Tabs

Version: 1 Type: Bass Tab 0 ratings
1 star 2 stars 3 stars 4 stars 5 stars
comments

Zombie Bass Tab

Artist: Cranberries
Song Title: Zombie
Tabbed by: x¤x ÅÇøü§T¡Ç x¤x
______________________________________

Chorus (Heavy):
G|-----------------|-----------------|-----------------|-----------------|
D|-----------------|-----------------|-----------------|-----------------|
A|-----------------|-3-3-3-3-3-3-5-3-|-----------------|-----------------| (2x)
E|-0-0-0-0-0-0-3-0-|-----------------|-3-3-3-3-3-3-5-3-|-2-2-2-2-2-3-2-3-|

Verse (Light):
G|-----------------|-----------------|-----------------|-----------------|
D|-----------------|-----------------|-----------------|-----------------|
A|-----------------|-3-3-3-3-3-3-3-3-|-----------------|-----------------| (5x)
E|-0-0-0-0-0-0-0-0-|-----------------|-3-3-3-3-3-3-3-3-|-2-2-2-2-2-3-2-3-|
[ Tab from: http://www.guitartabs.cc/tabs/c/cranberries/zombie_btab.html ]
Chorus (Heavy):
G|-----------------|-----------------|-----------------|-----------------|
D|-----------------|-----------------|-----------------|-----------------|
A|-----------------|-3-3-3-3-3-3-5-3-|-----------------|-----------------| (3x)
E|-0-0-0-0-0-0-3-0-|-----------------|-3-3-3-3-3-3-5-3-|-2-2-2-2-2-3-2-3-|

Verse (Light):
G|-----------------|-----------------|-----------------|-----------------|
D|-----------------|-----------------|-----------------|-----------------|
A|-----------------|-3-3-3-3-3-3-3-3-|-----------------|-----------------| (5x)
E|-0-0-0-0-0-0-0-0-|-----------------|-3-3-3-3-3-3-3-3-|-2-2-2-2-2-3-2-3-|

Chorus (Heavy):
G|-----------------|-----------------|-----------------|-----------------|
D|-----------------|-----------------|-----------------|-----------------|
A|-----------------|-3-3-3-3-3-3-5-3-|-----------------|-----------------| (4x)
E|-0-0-0-0-0-0-3-0-|-----------------|-3-3-3-3-3-3-5-3-|-2-2-2-2-2-3-2-3-|

Ending (Light):
G|-----------------|------------------------|
D|-----------------|------------------------|
A|-----------------|-3-3-3-335-3-0----------| (16x)
E|-0-0-0-00000-3-0-|---------------3--*0~*--|
				       |
	   **Final Note (Let Ring)** 
Comments