Cranberries - You And Me Chords & Tabs

 

You And Me Chords & Tabs

Cranberries Chords & Tabs

Version: 2 Type: Tab 0 ratings
1 star 2 stars 3 stars 4 stars 5 stars
comments

You And Me Tab

You and me by The cranberries
Tabbed by Aries_Mata05, Chile

Capo on 3th fret

INTRO:
E|----------------------------------------|-----------------------------------------|
B|----0------3-----3------1-----0-----0---|----0-----3-----3-----1-----0----0h1-0---|
G|------0------0-----0------0-----0-----0-|------0-----0-----0-----0-----0----------|
D|----------------------------------------|-----------------------------------------|
A|--3------2-----2------0-----2-----2-----|--3-----2-----2-----0-----2-----2--------|
E|----------------------------------------|-----------------------------------------|

VERSE 1:
E|----------------------------------------|
B|----0------3-----3------1-----0-----0---|
G|------0------0-----0------0-----0-----0-| (X8)
D|----------------------------------------|
A|--3------2-----2------0-----2-----2-----|
E|----------------------------------------|

CHORUS:
E|----------------------------------------|
B|----1------1-----1------0-----1-----1---|
G|------0------0-----0------0-----0-----0-| (x4)
D|----------------------------------------|
A|--3------3-----3------2-----3-----3-----|
E|----------------------------------------|
[ Tab from: http://www.guitartabs.cc/tabs/c/cranberries/you_and_me_tab_ver_2.html ]
AFTER THE CHORUS:
E|-------------------------------------------|----------------------------------------|
B|----0------3-----3------1-----0-----0h1-0--|----0------3-----3------1-----0-----0---|
G|------0------0-----0------0-----0----------|------0------0-----0------0-----0-----0-|
D|-------------------------------------------|----------------------------------------|
A|--3------2-----2------0-----2-----2--------|--3------2-----2------0-----2-----2-----|
E|-------------------------------------------|----------------------------------------|
 ...Taylor           ...taylor               ...taylor           ...taylor

					     |----------------------------3-----------|
					     |----------------------------------------|
	a second guitar play this...	     |----------------------3-----------------|
	una segunda guitarra toca esto...         |----------------------------------------|
					     |----------------------------------------|
					     |----------------------------------------|
E|----------------------------------------|
B|----0------3-----3------1-----0-----0---|
G|------0------0-----0------0-----0-----0-|(x2)
D|----------------------------------------|
A|--3------2-----2------0-----2-----2-----|
E|----------------------------------------|
...Tu tu tu tu tu  tu tu tu tu....etc.

VERSE 2: (The same that the 1st) (lo mismo que le primero)

CHORUS: (The same that the previous) (lo mismo que el anterior)

AFTER THE CHORUS:( the same, without the hammer on, just play a single note)
(lo mismo que el anterior, sin el hammer on, solo toca una nota normal)

END:
E|----------------------------------------|
B|----1-----1-----1-----1-----1-----------|
G|------0-----0-----0-----0---------------|
D|--2-----2-----2------2----2-------------|
A|----------------------------------------|
E|----------------------------------------|

Cualquier consulta, comentarios, etc. a aries_mata03@hotmail.com
Any question, comments, etc, my e-mail aries_mata03@hotmail.com
Comments