Cranberries - When Youre Gone Chords & Tabs

 

When Youre Gone Chords & Tabs

Cranberries Chords & Tabs

Version: 2 Type: Tab 0 ratings
1 star 2 stars 3 stars 4 stars 5 stars
comments

When Youre Gone Tab

Cranberries, When you're gone.
Tabbed by Jenny Krüger, jkrueger2000@gmx.de.
  
Here's the complete transcription of "When you're gone" from the Cranberries album "To the faithful deaparted". Hope it's useful! 


main riff:  -clean acoustic-    throughout

e--3-----3-----3-----3-------3-----3-----3-----3------
B----4-----4-----4-----4-------4-----4-----4-----4----
G------3-----3-----3-----3-------5-----5-----5-----5--
D-----------------------------------------------------
A-----------------------------------------------------
E-----------------------------------------------------

e--3-----3-----3-----3------6-----6-----6-----6-------
B----3-----3-----3-----3------6-----6-----6-----6-----
G------3-----3-----3-----3------7-----7-----7-----7---
D-----------------------------------------------------
A-----------------------------------------------------
E-----------------------------------------------------

Hold on to love that is what I do
Now that I've found you
And from above everything's stinking
They're not around you

And in the night I could be helpless
I could be lonely sleeping without you
And in the day everything's complex
There's nothing simple when I'm not around you

But I miss you when you're gone
That is what I do, baby
It's not to carry on
That is what I know, baby

Solo

Hold on to my hands I feel I'm sinkink
Sinking without you
And to my mind everything's stinking
Stinking without you
[ Tab from: http://www.guitartabs.cc/tabs/c/cranberries/when_youre_gone_tab_ver_2.html ]
And in the night...
And I miss you...


fill 1:

e-------------------------------
B-------------------------------
G----7br---8--------------------
D-------------------------------
A-------------------------------
E-------------------------------


solo:

e-----------------------------------------------------
B-----------------------------------------------------
G--8--10--12--12--10--8--7--8--7--7br--5--------------
D-----------------------------------------8brb--10----
A-----------------------------------------------------
E-----------------------------------------------------

e-----------------------------------------------------
B-----------------------------------------------------
G-----------------------------------------------------
D--12--13--15--17-------------------------------------
A-----------------------------------------------------
E-----------------------------------------------------


fill 2:

e-----------------------------------------------------
B-----------------------------------------------------
G--8--10--7-----8--10--7-----8--10--7------8----------
D------------8------------8------------8--------------
A-----------------------------------------------------
E-----------------------------------------------------


Listen to the song to find out where to play the fills. Any corrections are welcome. Has someone tabbed the guitar-solo of "Saving Grace"? Please submit!!! 
:: Ultimate Guitar Archive :: 
http://www.ultimate-guitar.com 

Comments