Cranberries - Empty Violin Parts For Guitar Chords & Tabs

 

Empty Violin Parts For Guitar Chords & Tabs

Cranberries Chords & Tabs

Version: 1 Type: Tab 0 ratings
1 star 2 stars 3 stars 4 stars 5 stars
comments

Empty Violin Parts For Guitar Tab

#----------------------------------PLEASE NOTE--------------------------------#
#This file is the author's own work and represents their interpretation of the#
#song. You may only use this file for private study, scholarship, or research.#
#-----------------------------------------------------------------------------#
#-- File created with Instab - http://www.pconline.com/~smcarey/instab.html --#
#-----------------------------------------------------------------------------#

Author/Artist: Cranberrries
Title: Empty
Album: No Need To Argue
Transcribed by: Trichloki
Email: epicurus_81@yahoo.com

Violin parts transcribed for guitar:

Intro:

--------------------------------------------------|---------------------------
------0-----0-----0-----0------0-----0-----0-----0|---------------------------
----9-----8-----6-----6------9-----8-----6-----6--|---------------------------
--7-----6-----7-----7------7-----6-----7-----7----|---------------------------
--------------------------------------------------|---------------------------
--------------------------------------------------|---------------------------
                                                                              
[ Tab from: http://www.guitartabs.cc/tabs/c/cranberries/empty_violin_parts_for_guitar_tab.html ]
--------------------------------------------|---------------------------------
-----0----------0----------0----------6-----|---------------------------------
---9---9-9----8---8-8----6---6-6----6---6-6-|---------------------------------
-7------7---6------6---7------7---7------7--|---------------------------------
--------------------------------------------|---------------------------------
--------------------------------------------|---------------------------------
  Bridge part:                                                                

-7h8p7-7-8-5--7h8p7-7-8-5--7h8p7-7-8-5--5h7p3-3h5-0--0---0-3-3-3-0---0-3-3-3--
-------------------------------------------------------3-----------3----------
------------------------------------------------------------------------------
------------------------------------------------------------------------------
------------------------------------------------------------------------------
------------------------------------------------------------------------------
                                                                              

-0---0-3-3-3-0---0-3-3-3-|----------------------------------------------------
---3-----------3---------|----------------------------------------------------
-------------------------|----------------------------------------------------
-------------------------|----------------------------------------------------
-------------------------|----------------------------------------------------
-------------------------|----------------------------------------------------
  End solo:                                                                   

-8--10--12--10--8--7--8--10--12--10--8--7--8--10--12--10--8-7----7h8-5--5h7-0-
------------------------------------------------------------------------------
------------------------------------------------------------------------------
------------------------------------------------------------------------------
------------------------------------------------------------------------------
------------------------------------------------------------------------------
                                                                              

Comments