Cranberries - Animal Instinct Chords & Tabs

 

Animal Instinct Chords & Tabs

Cranberries Chords & Tabs

Version: 4 Type: Tab 0 ratings
1 star 2 stars 3 stars 4 stars 5 stars
comments

Animal Instinct Tab

   
Song : Animal Instinct
Band : Cranberries
Tabbed By : Diamond Jerry (Raptureboy182@yahoo.com)

Standard Tuning
-----------------------------------------------------------------------------

[Intro/verse] 
       Em	Am7	Cadd9	     D
e|--0-0-0-0---0-0-0-0---0-0-0-0---2-2-2-2--------------------------------|
B|--0-0-0-0---1-1-1-1---3-3-3-3---3-3-3-3--------------------------------|
G|--0-0-0-0---0-0-0-0---0-0-0-0---2-2-2-2--------------------------------|
D|--2-2-2-2---2-2-2-2---2-2-2-2---0-0-0-0--------------------------------|
A|--2-2-2-2---0-0-0-0---3-3-3-3---0-0-0-0--------------------------------|
E|--0-0-0-0--------------------------------------------------------------|
Suddenly something has happened to me as I was having my cup of tea
Suddenly I was feeling depressed, I was utterly and totally stressed
Do you know you made me cry? ohhh...
Do you know you made me die?


[Chorus]
       Em	Am7	Cadd9	     D
e|--0-0-0-0---0-0-0-0---0-0-0-0---2-2-2-2--------------------------------|
B|--0-0-0-0---1-1-1-1---3-3-3-3---3-3-3-3--------------------------------|
G|--0-0-0-0---0-0-0-0---0-0-0-0---2-2-2-2--------------------------------| 
D|--2-2-2-2---2-2-2-2---2-2-2-2---0-0-0-0--------------------------------| x2
A|--2-2-2-2---0-0-0-0---3-3-3-3---0-0-0-0--------------------------------|
E|--0-0-0-0--------------------------------------------------------------|

(Guitar2) Electric guitar...
e|-----------------------------------------------------------------------|
B|-----------------------------------------------------------------------|
G|---xxx-9~------------xxx-5~---xxx-7~-----------------------------------|
D|---xxx-9~---xxx-7~---xxx-5~---xxx-7~-----------------------------------| x2
A|---xxx-7~---xxx-7~---xxx-3~---xxx-5~-----------------------------------|
E|------------xxx-5~-----------------------------------------------------|
And the thing that's gets to me, is you'll never really see 
And the thing that's freaks me out, is I always be in doubt


[Post Chorus]
	G	D	Cadd9	     D
e|--3-3-3-3---2-2-2-2---0-0-0-0---2-2-2-2--------------------------------|
B|--3-3-3-3---3-3-3-3---3-3-3-3---3-3-3-3--------------------------------|
G|--0-0-0-0---2-2-2-2---0-0-0-0---2-2-2-2--------------------------------|
D|--0-0-0-0---0-0-0-0---2-2-2-2---0-0-0-0--------------------------------| x2
A|--2-2-2-2---0-0-0-0---3-3-3-3---0-0-0-0--------------------------------|
E|--3-3-3-3--------------------------------------------------------------|
It is a lovely thing that we have
It is a lovely thing that we
It is a lovely thing the animal
The animal instinct...

-repeat intro-
[ Tab from: http://www.guitartabs.cc/tabs/c/cranberries/animal_instinct_tab_ver_4.html ]
[Riff]
e|-----------------------------------------------------------------------|
B|-----------------------------------------------------------------------|
G|-----------------------------------------------------------------------|
D|--9h10--9h10--9-h10-12-12--10~-10-10-----9h10--9h10--9-h10--5-5-/7~-77-|
A|-----------------------------------------------------------------------|
E|-----------------------------------------------------------------------|

-repeat verse-
So take my hands and come with me
We will change reality
So take my hands and we will pray
They won't take you away
They will never make me cry no.....
They will never make me die 


-repeat chorus x2-


The animal the animal the animal instinct to me
It is the animal the animal the animal instinct to me

It is the animal it is the animal
It is the animal instinct to me x2


[Solo1] Em - Am7 - Cadd9 - D
e|-----------------------------------------------------------------------|
B|-----------------------------------------------------------------------|
G|-----------------------------------------------------------------------|
D|--9h10--9h10--9-h10-12-12--10~-10-10-----9h10--9h10--9-h10--5-5-/7~-77-|
A|-----------------------------------------------------------------------|
E|-----------------------------------------------------------------------|

e|-----------------------------------------------------------------------|
B|-----------------------------------------------------------------------|
G|-----------------------------------------------------------------------|
D|--5-5-5-7~-7-7--/9-9-9-7~-7-7\---/9-9-9-7~-7-7\----5-5-5-7~-7-7--------|
A|-----------------------------------------------------------------------|
E|-----------------------------------------------------------------------|

[Solo2]
e|---------------------------------------------------------------------------|
B|---------------------------------------------------------------------------|
G|---------------------------------------------------------------------------|
D|-9h10--9h10--9-h10-12-12/--14~-14-14--14-14-14-12~-12-12\--10-10-10-9~-9-9~|
A|---------------------------------------------------------------------------|
E|---------------------------------------------------------------------------|

e|---------------------------------------------------------------------------|
B|---------------------------------------------------------------------------|
G|---------------------------------------------------------------------------|
D|--5-5-5--/7~-7-7---5-5-5--/7-7-7----/9-9-9--\7~-7-7----5-5-5--/7~-7-7--4~--|
A|---------------------------------------------------------------------------|
E|---------------------------------------------------------------------------|

(End on Em)

------------------------------------------------------------------------------
Any comments or corrections,just mail me to Raptureboy182@yahoo.com/ICQ #115343571
Comments