Craigs Brother - Who Am I Chords & Tabs

 

Who Am I Chords & Tabs

Craigs Brother Chords & Tabs

Version: 1 Type: Bass Tab 0 ratings
1 star 2 stars 3 stars 4 stars 5 stars
comments

Who Am I Bass Tab

   
Band  : Craig's Brother
Song  : Who Am I ? [Track 7/12]
Album : Homecoming ['98]
Style : Christian Punk 

Intro.
G|-------------------------------------------------------------|
D|-----------------------------------------------------4---3-2-|
A|-2-2---2---2---2-4---4---4---4-6---6---6---6---2-2-----------|
D|-------------------------------------------------------------|

G|-------------------------------------------------------------|
D|-------------------------------------------------------------|
A|-2-2---2---2---2-4---4---4---4-1---1---1---1-2---2---2---2---|
D|-------------------------------------------------------------|

Verse part 1.
G|-------------------------------------------------------------|
D|-------------------------------------------------------------|
A|-2-2---2-2-2---2-2-2---2-2-2---2-2-2---2-2-2---2-2-2---2-4-4-|
D|-------------------------------------------------------------|

Verse part 2.
G|-------------------------------------------------------------|
D|-------------------------------------------------------------|
A|-6-6---6-6-6---6-6-6---6-6-6---6-6-6---6-6-6---6-6-6---6-4-4-|
D|-------------------------------------------------------------|

Verse part 3.
G|-----------------------------------|
D|-----------------------------------|
A|-6-------6-------6-6-4---6-6-6-6/4-|
D|-----------------------------------|

Verse part 4.
G|-----------------------------------------------------------|
D|-----------------------------------------------------------|
A|-2-2---2-2-2---2-4---4-4-4---4-6-6---6-6-6---6-6-6-6-6-4-4-|
D|-----------------------------------------------------------|

Chorus part 1.
G|-------------------------------------------------------------|
D|-------------------------------------------------------------|
A|-2-2---2---2---2-4---4---4---4-6---6---6---6-2---2---2---2---|
D|-------------------------------------------------------------|

Chorus part 2.
G|-------------------------------------------------------------|
D|-------------------------------------------------------------|
A|-2-2---2---2---2-4---4---4---4-1---1---1---1-2---2---2---2---|
D|-------------------------------------------------------------|

Chorus part 3.
G|-----------------------------------------------------------------|
D|-----------------------------------------------------------------|
A|-2-2---2---2---2-4---4---4---4-1---1---1---1-2---(2)---(2)ó(4)---|
D|-----------------------------------------------------------------|

Chorus part 4.
G|-----------------------------------------------------------------|
D|-----------------------------------------------------------------|
A|-6-6---6---6--6---4-4---4---4--4---2-2---2-2-2---2-2-2---2-2-2---|
D|-----------------------------------------------------------------|
[ Tab from: http://www.guitartabs.cc/tabs/c/craigs_brother/who_am_i_btab.html ]
Chorus part 5.
G|-----------------------------------------------------------------|
D|-----------------------------------------------------4-4---4-3-3-|
A|-6-6---6---6--6---4-4---4---4--4---2-2---2-2-2---2---------------|
D|-----------------------------------------------------------------|

Chorus part 6.
G|-------------------------------------------------------------------|
D|-----------6--8---------8--6---------------------------------------|
A|-6-6---9----------4-4----------9---2---2---2~----------------------|
D|-------------------------------------------------------------------|

Chorus part 7.
G|-------------------------------------------------------------------|
D|-----------6--8---------8--6---------------------------------------|
A|-6-6---9----------4-4----------9---2---2---2---2/14~---------------|
D|-------------------------------------------------------------------|

Chorus part 8.
G|---------------------------------|
D|-----------6--8---------8--6-----|
A|-6-6---9----------4-4----------9-|
D|---------------------------------|

G|---------------------------------------------------|
D|---------------------------------------------------|
A|-2---2---2---2---2---2---2---4---------------------|
D|---------------------------------1~--------------1-|

Bridge part 1.
G|------------|
D|------------|
A|-2/14~------|
D|------------|

Bridge part 2.
Starts with:
A|-2-2-2-2-2-2-2-2-|

G|-----------------------------------------------------------------|
D|-----------------------------------------------------------4---3-|
A|-2-2-2-2-2-2-2-2-4-4-4-4-4-4-4-4-6-6-6-6-6-6-6-6-2-2-2-2---------|
D|-----------------------------------------------------------------|

G|-----------------------------------------------------------------|
D|-----------------------------------------------------------------|
A|-2-2-2-2-2-2-2-2-4-4-4-4-4-4-4-4-1-1-1-1-1-1-1-1-2-2-2-2-2-2-2-2-|
D|-----------------------------------------------------------------|

G|---------------------------------------------------------|
D|---------------------------------------------------------|
A|-2-2-2-2-2-2-2-2-4-4-4-4-4-4-4-4-6-6---6---6---6-4-4---4-|
D|---------------------------------------------------------|




For those who want to know..
Who am I? - order
intro 1x
verse P1. 1x
verse P2. 1x
verse P1. 1x
verse P3. 1x
chorus P1. 1x
chorus P2. 1x
chorus P1. 1x
chorus P3. 1x
chorus P4. 1x
chorus P5. 1x
chorus P4. 1x
chorus P6. 1x
verse P1. 1x
verse P2. 1x
verse P1. 1x
verse P4. 1x
chorus P1. 1x
chorus P2. 1x
chorus P1. 1x
chorus P3. 1x
chorus P4. 1x
chorus P5. 1x
chorus P4. 1x
chorus P7. 1x
bridge P1. 1x
bridge P2. 1x
chorus P3. 1x
chorus P4. 1x
chorus P5. 1x
chorus P4. 1x
chorus P8. 1x

because I made a lot of sections in the tab (itís my first one),
the song might look a bit difficult. But it is quite easy, actually. 
Have a lot of fun with this extraordinary good song.
Comments