Craig David - Unbelievable Chords & Tabs

 

Unbelievable Chords & Tabs

Craig David Chords & Tabs

Version: 1 Type: Tab

Unbelievable Tab

Song: Unbelievable
Artist: Craig David
Album: The Story Goes
Standard Tuning (EADGBE)
Date: Feb. 19 2006
Tabber: Oliver Liscano
www.myspace.com/olilis

Verse 1
3x
e-------3---------3---------3---------3--------------------------|
B----------------------------------------------------------------|
G-----5---------5---------4---------5----------------------------|
D---5---------5---------5-------3-5------------------------------|
A-3--------------------------------------------------------------|
E-----------5---------3------------------------------------------|

e----------------------------------------------------------------|
B----------------------------------------------------------------|
G-4/5-0-0----5-7-9-----------------------------------------------|
D-6/7-5-2----5-9-10----------------------------------------------|
A----------------------------------------------------------------|
E----------------------------------------------------------------|

Chorus
3x
e-------3----------3----------3----------3---------------------|
B------------------------------------------3-------------------|
G-----5---5------5---5------4---4------5-----5-----------------|
D---5----------5----------5--------3-5---------5---------------|
A-3------------------------------------------------------------|
E------------5----------3--------------------------------------|

e-------3----------3----------3----------3---------------------|
B--------------------------------------------------------------|
G-----5---5------5---5------4---4------5-----------------------|
D---5----------5----------5--------3-5-------------------------|
A-3------------------------------------------------------------|
E------------5----------3--------------------------------------|

e----------------------------------------------------------------|
B----------------------------------------------------------------|
G-4/5-0-0--------------------------------------------------------|
D-6/7-5-2--------------------------------------------------------|
A----------------------------------------------------------------|
E----------------------------------------------------------------|

Verse 2
3x
e-----------------------------3--------------------------------|
B-------5----------5-------------------3-6---------------------|
G-----5---5------5---5------4---4----5-----5-------------------|
D----------------------------------5---------------------------|
A-3------------------------------------------------------------|
E------------5----------3--------------------------------------|

e----------------------------------------------------------------|
B----------------------------------------------------------------|
G-4/5-0-0----5-7-9-----------------------------------------------|
D-6/7-5-2----5-9-10----------------------------------------------|
A----------------------------------------------------------------|
E----------------------------------------------------------------|

Chorus
3x
e-------3----------3----------3----------3---------------------|
B------------------------------------------3-------------------|
G-----5---5------5---5------4---4------5-----5-----------------|
D---5----------5----------5--------3-5---------5---------------|
A-3------------------------------------------------------------|
E------------5----------3--------------------------------------|
[ Tab from: http://www.guitartabs.cc/tabs/c/craig_david/unbelievable_tab.html ]
e-------3----------3----------3----------3---------------------|
B--------------------------------------------------------------|
G-----5---5------5---5------4---4------5-----------------------|
D---5----------5----------5--------3-5-------------------------|
A-3------------------------------------------------------------|
E------------5----------3--------------------------------------|

e----------------------------------------------------------------|
B----------------------------------------------------------------|
G-4/5-0-0--------------------------------------------------------|
D-6/7-5-2--------------------------------------------------------|
A----------------------------------------------------------------|
E----------------------------------------------------------------|

Bridge
e-----------------3-----3-----3-----------------------------------|
B-6-----6-----6-----3-----3-------5-----5-----5-------3-6-----6---|
G---5-----5-----5-----5-----5---5---5-----5-----5---5-----5-----5-|
D-----5-----5-------------------------5-----5-----5---------5-----|
A-----------------------------------------------------------------|
E-----------------------------------------------------------------|

e-----------------3----------------------------------------------|
B-6-----6-----6--------------------------------------------------|
G---5-----5-----5------------------------------------------------|
D-----5-----5----------------------------------------------------|
A----------------------------------------------------------------|
E----------------------------------------------------------------|

Guitar 1
2x
e-------3----------3----------3----------3---------------------|
B------------------------------------------3-------------------|
G-----5---5------5---5------4---4------5-----5-----------------|
D---5----------5----------5--------3-5---------5---------------|
A-3------------------------------------------------------------|
E------------5----------3--------------------------------------|

Guitar 2
e---------8-8--8-8--8-8-7---4/5-3-------3------------------------|
B---------------------------------5---5--------------------------|
G----------------------------------------------------------------|
D----------------------------------------------------------------|
A----------------------------------------------------------------|
E----------------------------------------------------------------|

e---------8-8--8-8----8-8/10-------------------------------------|
B-------5-----------8-----------------5-6------------------------|
G----------------------------------------------------------------|
D----------------------------------------------------------------|
A----------------------------------------------------------------|
E----------------------------------------------------------------|

Chorus
3x
e-------3----------3----------3----------3---------------------|
B------------------------------------------3-------------------|
G-----5---5------5---5------4---4------5-----5-----------------|
D---5----------5----------5--------3-5---------5---------------|
A-3------------------------------------------------------------|
E------------5----------3--------------------------------------|

e-------3----------3----------3----------3---------------------|
B--------------------------------------------------------------|
G-----5---5------5---5------4---4------5-----------------------|
D---5----------5----------5--------3-5-------------------------|
A-3------------------------------------------------------------|
E------------5----------3--------------------------------------|

e----------------------------------------------------------------|
B----------------------------------------------------------------|
G-4/5-0-0----5-7-9-----------------------------------------------|
D-6/7-5-2----5-9-10----------------------------------------------|
A----------------------------------------------------------------|
E----------------------------------------------------------------|