Craig David - Rise And Fall Chords & Tabs

 

Rise And Fall Chords & Tabs

Craig David Chords & Tabs

Version: 4 Type: Tab 0 ratings
1 star 2 stars 3 stars 4 stars 5 stars
comments

Rise And Fall Tab

Hello,
This is my first time so if it's not quiet right I appologise.
This may not be correct but it certanly sounds good.
This song sounds best if played on an acoustic guitar.
I have used 2 guitars here.
Both play the same kind of riff just on different parts of the neck.
[ Tab from: http://www.guitartabs.cc/tabs/c/craig_david/rise_and_fall_tab_ver_4.html ]
Guitar One
e|--------------------------------|
B|-10------10-9-----9--7----7-7-6-|
G|--------------------------------|
D|------12--------9-------7-------|
A|-9--9-------7-7-----5-5-----5-4-|
E|--------------------------------|

Guitar Two
e|-5-----5-4-----4-2-----2-2---|
B|---------------------------6-|
G|-----6-------4-------2-------|
D|-4-4-----2-2-----0-0-----0---|
A|---------------------------4-|
E|-----------------------------|

Play these riffs all the way through the song. I suggest you open the song by playing
guitar one once through and finish with guitar one playing once through after the
signing has finished.

Enjoy!!!

By Thomas Kaye
Comments