Craig David - Rise And Fall Chords & Tabs

 

Rise And Fall Chords & Tabs

Craig David Chords & Tabs

Version: 2 Type: Tab 0 ratings
1 star 2 stars 3 stars 4 stars 5 stars
comments

Rise And Fall Tab

This is how I heard it.

All:Repeated throughout the entire song
---------------------------------------------------------------------------
---10----10---9-----9---7-------7--7------6--------------------------------
---------------------------------------------------------------------------
------11---------9----------7-----------6----------------------------------
---------------------------------------------------------------------------
---------------------------------------------------------------------------
[ Tab from: http://www.guitartabs.cc/tabs/c/craig_david/rise_and_fall_tab_ver_2.html ]
I made this bit up but it goes well with the song,
This is for the more adventurous people here!! lol

---------------------------------------------------------------------------
---10----10---12----12---14------14--14-----13-----------------------------
---------------------------------------------------------------------------
------11---------9---------------------------------------------------------
-----------------------------12---------11---------------------------------
---------------------------------------------------------------------------
Comments