Craig David - Keys To My Heart Chords & Tabs

 

Keys To My Heart Chords & Tabs

Craig David Chords & Tabs

Version: 1 Type: Tab 0 ratings
1 star 2 stars 3 stars 4 stars 5 stars
comments

Keys To My Heart Tab

   
-------------------------------------------------------------------------------
			     Keys to my Heart-Craig David
-------------------------------------------------------------------------------
Tabbed by:Jeffkamungu
Email:geoffykom@yahoo.com
[ Tab from: http://www.guitartabs.cc/tabs/c/craig_david/keys_to_my_heart_tab.html ]
Tuning:Standard
            Am                         G                     F
e|-------------5-----------|------------3---------|-----------1----------1---|
B|--5--------------5-------|--3-------------3-----|--1------------1--------1-|
G|-----5-------------------|-----4----------------|-----2------------2-------|
D|--------7----------------|--------5-------------|--------3-----------3-----|
A|-------------------------|----------------------|--------------------------|
E|--5------------------0---|--3-----------------0-|--1-----------------------|
           Am                      G                     F
e|------------5--------|------------3---------|-----------1------------------|
B|--5-------------5----|--3-------------3-----|--1------------1--------------|
G|-----5---------------|-----4----------------|-----2------------------------|
D|--------7------------|--------5-------------|--------3---------------------|
A|---------------------|----------------------|------------------------------|
E|--5----------------0-|--3-----------------0-|--1---------------------------|
    Esus|E        Am                G                  F
e|---------|-----------5----|-----------3-----|-----------1----------1-------|
B|---------|--5-----------5-|--3-----------3--|--1-----------1----------1----|
G|--2---1--|-----5----------|-----4-----------|-----2-----------2------------|
D|---------|--------7-------|--------5--------|--------3-----------4---------|
A|---------|----------------|-----------------|------------------------------|
E|--0---0--|--5-------------|--3--------------|--1---------------------------|
             Csus                        Em                E
e|-----------3------------3-----|------------0-----|-------0-----------------|
B|--3-----------3---------------|--0-------------0-|------0------------------|
G|-----------------5---------5--|-----0------------|-----1-------------------|
D|-------5------------5---------|--------2---------|----2--------------------|
A|--3---------------------------|------------------|---2---------------------|
E|------------------------------|--0---------------|--0----------------------|

            Am                         G                     F
e|-------------5-----------|------------3---------|-----------1----------1---|
B|--5--------------5-------|--3-------------3-----|--1------------1--------1-|
G|-----5-------------------|-----4----------------|-----2------------2-------|
D|--------7----------------|--------5-------------|--------3-----------3-----|
A|-------------------------|----------------------|--------------------------|
E|--5------------------0---|--3-----------------0-|--1-----------------------|
           Am                      G                     F
e|------------5--------|------------3---------|-----------1------------------|
B|--5-------------5----|--3-------------3-----|--1------------1--------------|
G|-----5---------------|-----4----------------|-----2------------------------|
D|--------7------------|--------5-------------|--------3---------------------|
A|---------------------|----------------------|------------------------------|
E|--5----------------0-|--3-----------------0-|--1---------------------------|
    Esus|E        Am                G                  F
e|---------|-----------5----|-----------3-----|-----------1----------1-------|
B|---------|--5-----------5-|--3-----------3--|--1-----------1----------1----|
G|--2---1--|-----5----------|-----4-----------|-----2-----------2------------|
D|---------|--------7-------|--------5--------|--------3-----------4---------|
A|---------|----------------|-----------------|------------------------------|
E|--0---0--|--5-------------|--3--------------|--1---------------------------|
         Am                             Em               E
e|------------5-----------5-----|------------0-----|-------0-----------------|
B|--6------------6------------6-|--0-------------0-|------0------------------|
G|-----5------------5-----------|-----0------------|-----1-------------------|
D|--------7------------7--------|--------2---------|----2--------------------|
A|--5------------------5--------|------------------|---2---------------------|
E|------------------------------|--0---------------|--0----------------------|
Comments