Craig David - 7 Days Chords & Tabs

 

7 Days Chords & Tabs

Craig David Chords & Tabs

Version: 5 Type: Tab 0 ratings
1 star 2 stars 3 stars 4 stars 5 stars
comments

7 Days Tab

   
Artist: Craig David
Song: 7 Days
Transcribed By: Rio Guera (Filipino)
Date: February 14,2002


Intro/Chorus
[ Tab from: http://www.guitartabs.cc/tabs/c/craig_david/7_days_tab_ver_5.html ]
Em                             Am                   Bm           
---0-----0--2\3-0-2h0--------------------------------------2-----
---0-----0------0------3--1h0--1-------0h1-0h1--3---3--2h3-------
---0-----0-----------------------2------------------4------------
-----------------------------------2----------------4------------
-------------------------------0-------0-------------------------
-0---0-0---------------------------------------------------------



Outro

Em    Am7   Bm7
7----0-----2----
8----1-----3----
9----0-----2----
9----2-----4----
7----0-----2----
----------------
Comments