Craig David - 7 Days Chords & Tabs

 

7 Days Chords & Tabs

Craig David Chords & Tabs

Version: 2 Type: Tab 0 ratings
1 star 2 stars 3 stars 4 stars 5 stars
comments

7 Days Tab

#----------------------------------PLEASE NOTE--------------------------------#
#This file is the author's own work and represents their interpretation of the#
#song. You may only use this file for private study, scholarship, or research.#
#-----------------------------------------------------------------------------#
#-- File created with Instab - http://www.pconline.com/~smcarey/instab.html --#
#-----------------------------------------------------------------------------#

Artist:Craig Daivd
Title:7 Days

Album:Born to do it
Transcribed:Jonathan Meisburg
Email:pbpaintball@yahoo.com
Aim:snake4400

This is the tab for Craig David-7 days....Beautiful song for guitar.....
Guitar 1 and 2 are played at the same time...listen to the song for the tempo.
Have fun and uh email me with comments and whatnot...hehe

[ Tab from: http://www.guitartabs.cc/tabs/c/craig_david/7_days_tab_ver_2.html ]
Guitar 1:
------------------------------------------------------------------------------
-7-8p7---7------------------------------------7-------------------------------Repeat
-------9---9-7-----------------------7----5h7---------------------------------
---------------10-9-10--10-9h10p9h10------------------------------------------
------------------------------------------------------------------------------
------------------------------------------------------------------------------
                                                                              
Guitar 2:
-7----------------2-----------------------------------------------------------
-8--------1-------3-----------------------------------------------------------
-9--------2-------4-----------------------------------------------------------Repeat
-9--------2-------4-----------------------------------------------------------
-7----------------2-----------------------------------------------------------
------------------------------------------------------------------------------                                          
Comments